Fight Tab - The Classic Crime






The Classic Crime - "The Fight"
From the album "Albatross"

Tabbed by BKSTaxMan


Tuning: Drop Db
  x = Mute (Different than palm mutes.  Used to indicate harmonics in chorus
            and verses.  For the most part just lightly rest finger over the
            last frets played or, on some, the next ones about to be played
            to get the right harmonics...use the song to reference)
  / = Slide Up
   = Slide Down
  h = Hammer On
  p = Pull Off
  * = Palm Mute


Intro/Chorus/Post-Solo Break:

Eb|-----------------------------------------|
Bb|-----------------------------------------|
Gb|--------9-9-9-9-9-9/11----9-9-9-9-9-9/11-|
Db|-xxx-4-4x-x-x-x-x-x-x--4-4x-x-x-x-x-x-x--|
Ab|-xxx-4-47-7-7-7-7-7/9--4-47-7-7-7-7-7/9--|
Db|-xxx-4-4---------------4-4---------------|

Eb|--------------------------------------------------------------|    Guitar 2 alternative
Bb|--------------------------------------------------------------|
Gb|-----6-6-6-6-6-6/9------4-4-4-4/642-    (Gb|-4-4-4-4h6p4-2)-|
Db|-0-0-x-x-x-x-x-x-x--2-2-x-x-x-x-x-x-x-    (Db|----------------|
Ab|-0-0-4-4-4-4-4-4/7--2-2-2-2-2-2/42






Like us on Facebook