Solar Powered Life Tab - The Classic Crime






-------------------------------------------------------------------------------
                     SOLAR POWERED LIFE - The Classic Crime
-------------------------------------------------------------------------------
Tabbed by: Kyle Kerley
Email: kerleymsu@yahoo.com

Tuning: Standard

This might not be in the right octave, but all the notes are right, I think.
Feedback is much appreciated.Thank you.

[Verses 1 & 2] 

e|---------|-----------------------------------------------------------------|
B|---------|-----------------------------------------------------------------|
G|---------|-----------------------------------------------------------------|  4X
D|-2-4----|-----------7--9--9/11--9-7-9-7-----------------------------------|
A|-2-4----|--------9----------------------9--------------------------------|
E|-0-2----|-----------------------------------------------------------------|

[Chorus]

e|---------------------------------------------------------------------------|
B|---------------------------------------------------------------------------|
G|---------------4-4---4-6-6----------------------4-4---4-6-6----------------|
D|-4---4-7-7---7-4-4---4-6-6------4-4---4-7-7---7-4-4---4-6-6----------------|
A|-4---4-7-7---7-2-2---2-4-4------4-4---4-7-7---7-2-2---2-4-4----------------|
E|-2---2-5-5---5-------------4b5--2-2---2-5-5---5-------------4b5------------|

e|---------------------------------------------------------------------------|
B|---------------------------------------------------------------------------|
G|-----------------4-4-4-4-6-6----------------------4-4-4-4-6-6-----9--9-11-|
D|-4-4-4-4-7-7-7-7-4-4-4-4-6-6------4-4-4-4-7-7-7-7-4-4-4-4-6-6-----9--9-11-|
A|-4-4-4-4-7-7-7-7-2-2-2-2-4-4------4-4-4-4-7-7-7-7-2-2-2-2-4-4-----7--7-11-|
E|-2-2-2-2-5-5-5-5-------------4b5--2-2-2-2-5-5-5-5-------------4b5----------|

[Bridge]

Guitar 1

e|------------------------------------14-14----14-14----14-14-14-14-14-14-14-14-14-|
B|-------------------------------13b14------14-------14----14----------------------|
G|---------------------------------------------------------------------------------|
D|---------------------------------------------------------------------------------|
A|---------------------------------------------------------------------------------|
E|---------------------------------------------------------------------------------|

Guitar 2

e|---------------------------------------------------------------------------|
B|---------------------------------------------------------------------------|
G|---------------------------------------------------------------------------|
D|-(0)-2-4------2-4-------(0)-2-4-4-4-4-4-4-4-4-4-4-4-4-4-4-4-4------------|
A|-(0)-2-4------2-4-------(0)-2-4-4-4-4-4-4-4-4-4-4-4-4-4-4-4-4------------|
E|-(0)-0-2------0-2-------(0)-0-2-2-2-2-2-2-2-2-2-2-2-2-2-2-2-2------------|
   
   pm*                     pm*   pm*------------------>


[Don't play for the first part of the last chorus]


[Have Fun!]


************************************

| /   slide up
|    slide down
| h   hammer-on
| p   pull-off
| ~   vibrato
| +   harmonic
| x   Mute note
| b   Bend
| pb  Pre-bend
| br  Bend release
| pbr Pre-bend release
| brb Bend release bend

************************************






Like us on Facebook