Who Needs Air Chords - The Classic Crime






Who Needs Air (The Classic Crime)

This song is played in drop Db it should be correct happy playing!

Chords used in the song:

       Db    Gb  Bbm  Ebm  Fm   Ab
Eb)-------------------------------------------------------------------|
Bb)-------------------------------------------------------------------|
Gb)-------------------------------------------------------------------|
Db)--0----0---5---9----2----4----7------------------------------------|
Ab)--0-or-5---5---9----2----4----7------------------------------------|
Db)--0----0---5---9----2----4----7------------------------------------|

Intro
Eb)-------------------------------------------------------------------|
Bb)-------------------------------------------------------------------|
Gb)-------------------------------------------------------------------|
Db)-0-0-0-4-0-0--0-0-0--5-4-2-----------------------------------------|
Ab)-5-5-5-5-5-5--5-5-5---------4----5---4---5-------------------------|
Db)-0-0-0-0-0-0--0-0-0---------5----5---5---5-------------------------|

Repeat x2 for intro and use before verse 2 one time.

Verse 1
   Db    Db/Eb, Db/F
I long to taste adventure like the nature of the sea,
             Gb
Always moving, always hiding all the creatures from beneath.
              Db     Db/Eb, Db/F
Singing silent songs of sadness my heart waits for its chance,
      Gb
To dance upon the ashes of my burned up little plans.
           Db  Db/Eb, Db/F, Gbplay 
for 1 bar)
And I stand alone before the night.
        Db         Gb
My nakedness is so clear in the glow of the moonlight.
         Bbm      Gb
Life is old, but so short.
         Bbm      Gb
We are young, we want more.

Chorus
Db          Gb
I'm drowning, but I don't care,
                 Bbm
Because when you got what I got, what I got, what I got
   Gb
Who needs air?
                 Db
I dont need air.

Verse 2
                 Db        Db/Eb, Db/F
My addiction to danger like the rush of the sea,
          Gb
Like a wave on the rocks the lessons crash down on me.
          Db             Db/Eb, Db/F
I dont need to prove the world to you only to myself.
      Gb
So step back and look away as I dive into the swell.

Chorus
Db             Gb
I'm drowning, but I don't care,
                 Bbm
Because when you got what I got, what I got, what I got
    GbDb
Who needs air?  I dont need air.

Bridge (with one guitar)
Ebm   Fm
Take me down to the river like a little child,
Gb     Ab
Take my hand and tell me its okay to be wild.
Ebm               Fm
I never knew the world until I saw through your eyes,
Gb      Ab
I never knew my self until I ripped off my disguise.

Bridge (with 2 guitars)
     Ebm Fm  Gb  Ab Ebm  Fm  
Ab
Eb)-------------------------------------------------------------------|
Bb)-------------------------------------------------------------------|
Gb)------------------------------2------------------------------------|
Db)--------------2----------------------------------------------------|
Ab)--2---4---5-------2---4---5----------------------------------------|
Db)-------------------------------------------------------------------|
The chords are for (guitar #1) the tab is for (guitar #2) the chords are above the 
notes on the tab

Chorus
Db           Gb
I'm drowning, but I don't care,
                 Bbm
Because when you got what I got, what I got, what I got
      Gb
Who needs air?

Play through x 3

               Db
You dont need air


Tabbed by GJ Evans

Any comments or revisions please send to g-evans@hotmail.com






Like us on Facebook