Die By The Drop ver3 Tab - The Dead Weather






-------------------------------------------------------------------------------
THE DEAD WEATHER - Die By The Drop
-------------------------------------------------------------------------------
Tabbed by: Jacky III
Email: jacqueline.stuermer@web.de

Tuning: standard

Intro
e|---------------------------------------------------------------------------|
B|---------------------------------------------------------------8-----------|
G|--9-9-9-9-9-9-9-9-9-9-9-9-9-9-9-9-9-9-9-9-9-9-9-9-9-9-9-9-9-9----7-9-------|
D|---------------------------------------------------------------------------|
A|---------------------------------------------------------------------------|
E|---------------------------------------------------------------------------|

Chorus (repeat several times... I don't have the song here so I can't figure out how 
you have to play it... listen to the song then you'll know)
e|-----------------10--------------------------------------------------------|
B|--8---------8-10------8-----8----------------------------------------------|
G|----7-9---9---------9---9-----7-9------------------------------------------|
D|---------------------------------------------------------------------------|
A|---------------------------------------------------------------------------|
E|---------------------------------------------------------------------------|

Enjoy it :)






Like us on Facebook