I Feel Strange Tab - The Dead Weather






Tabbed only the main guitar.


h =hammer on
p =pull off
b =bend
 =slide down
/ =slide up
~ = let ring


E------------9h10p9--------------------------------|
B----9h10------------9h10p9------------------------|
G------------------------------9-----7b--6---------|
D--------------------------------------------------|
A--------------------------------------------------|
E--------------------------------------------------|

E------------9h10p9----------------------------5---|
B----9h10------------9h10p9------------------------|
G------------------------------9-----7b--6---------|               X2
D--------------------------------------------------|
A--------------------------------------------------|
E--------------------------------------------------|

E------------9h10p9--------------------------------|
B----9h10------------9h10p9------------------------|
G------------------------------9-----7b--6---------|
D--------------------------------------------------|
A--------------------------------------------------|
E--------------------------------------------------|

E------------9h10p9--------------------------------|
B----9h10------------9h10p9------------------------|
G------------------------------9-----7b------------|
D------------------------------------------7-------|
A--------------------------------------------------|
E--------------------------------------------------|


--------------------------------------------------------------------------

E--------------------------------------------------|
B----8-8--------7-7--------------------------------|
G----------9-9--------7-7----9-9-------------------|
D--------------------------------------------------|
A--------------------------------------------------|
E--------------------------------------------------|

E--------------------------------------------------|
B----8-8--------7-7--------------7-----------------|
G----------9-9--------7-7----9------9--------------|
D--------------------------------------------------|
A--------------------------------------------------|
E--------------------------------------------------|

E--------------------------------------------------|
B----8-8--------7-7--------------------------------|
G----------9-9--------7-7----9-9-------------------|
D--------------------------------------------------|
A--------------------------------------------------|
E--------------------------------------------------|

E--------------------------------------------------|
B----8-8--------7-7--------------7-----------------|
G----------9-9--------7-7----9------9~---7b--5-----|
D-----------------------------------------------7--|
A--------------------------------------------------|
E--------------------------------------------------|


-----------------------------------------------------------------------------

E------------9h10p9--------------------------------|
B----9h10------------9h10p9------------------------|
G-------------------------------9-----7b--6--------|
D--------------------------------------------------|
A--------------------------------------------------|
E--------------------------------------------------|

E------------9h10p9----------------------------5---|
B----9h10------------9h10p9------------------------|
G-------------------------------9-----7b--6--------|
D--------------------------------------------------|
A--------------------------------------------------|
E--------------------------------------------------|

E------------9h10p9--------------------------------|
B----9h10------------9h10p9------------------------|
G-------------------------------9-----7b--6--------|
D--------------------------------------------------|
A--------------------------------------------------|
E--------------------------------------------------|

E------------9h10p9----------------------------5---|
B----9h10------------9h10p9------------------------|
G-------------------------------9-----7b--6--------|      V1
D--------------------------------------------------|
A--------------------------------------------------|
E--------------------------------------------------|

E------------9h10p9--------------------------------|
B----9h10------------9h10p9------------------------|
G-------------------------------9-----7b--6--------|
D--------------------------------------------------|
A--------------------------------------------------|
E--------------------------------------------------|

E------------9h10p9--------------------------------|
B----9h10------------9h10p9------------------------|
G-------------------------------9-----7b-----------|
D----------------------------------------------7---|
A--------------------------------------------------|
E--------------------------------------------------|


-----------------------------------------------------------------------------

E--------------------------------------------------|
B----8-8--------7-7--------------------------------|
G----------9-9--------7-7----5-5-------------------|
D--------------------------------------------------|
A--------------------------------------------------|
E--------------------------------------------------|

E--------------------------------------------------|
B----8-8--------7-7--------------7-----------------|
G----------9-9--------7-7----9------9--------------|
D--------------------------------------------------|
A--------------------------------------------------|
E--------------------------------------------------|

E--------------------------------------------------|
B----8-8--------7-7--------------------------------|
G----------9-9--------7-7----9-9-------------------|
D--------------------------------------------------|
A--------------------------------------------------|
E--------------------------------------------------|

E--------------------------------------------------|
B----8-8--------7-7--------------7-----------------|
G----------9-9--------7-7----9------9--------------|
D--------------------------------------------------|
A--------------------------------------------------|
E--------------------------------------------------|

E--------------------------------------------------|
B----8-8--------7-7--------------------------------|
G----------9-9--------7-7----9-9~---7b---5---------|
D---------------------------------------------7----|
A--------------------------------------------------|
E--------------------------------------------------|

-----------------------------------------------------------------------------

Play V1

-----------------------------------------------------------------------------

E--------------------------------------------------|
B----8-8--------7-7--------------------------------|
G----------9-9--------7-7----5-5-------------------|
D--------------------------------------------------|
A--------------------------------------------------|
E--------------------------------------------------|

E--------------------------------------------------|
B----8-8--------7-7--------------7-----------------|
G----------9-9--------7-7----9------9--------------|
D--------------------------------------------------|
A--------------------------------------------------|
E--------------------------------------------------|

E--------------------------------------------------|
B----8-8--------7-7--------------------------------|
G----------9-9--------7-7----9-9-------------------|
D--------------------------------------------------|
A--------------------------------------------------|
E--------------------------------------------------|

E--------------------------------------------------|
B----8-8--------7-7--------------7-----------------|
G----------9-9--------7-7----9------9--------------|
D--------------------------------------------------|
A--------------------------------------------------|
E--------------------------------------------------|

E--------------------------------------------------|
B----8-8--------7-7--------------------------------|
G----------9-9--------7-7----9-9-------------------|
D--------------------------------------------------|
A--------------------------------------------------|
E--------------------------------------------------|

E----7--75---53---3------------------------------|
B-------------------------7--75--5----------------|
G--------------------------------------------------|
D--------------------------------------------------|
A--------------------------------------------------|
E--------------------------------------------------|

E----7--75---53---3------------------------------|
B-------------------------7--7/8---8---------------|
G--------------------------------------------------|
D--------------------------------------------------|
A--------------------------------------------------|
E--------------------------------------------------|


E----------------------------------------------------------------------|
B-10--108---8--87---7--75---5--3/5--5-5---5-53---3--32---2--3--2~-|
G----------------------------------------------------------------------|
D----------------------------------------------------------------------|
A----------------------------------------------------------------------|
E----------------------------------------------------------------------|


E--7--75---53---3/5-5-------------------------------------------|
B--------------------------8--87---7--75---5--53---3--2-2-2----|
G-----------------------------------------------------------------|
D-----------------------------------------------------------------|
A-----------------------------------------------------------------|
E-----------------------------------------------------------------|

-----------------------------------------------------------------------------

Play V1
-----------------------------------------------------------------------------

E-----------------------------------------------------------------|
B-----------------------------------------------------------------|
G--------9--9--------7--7---6-----------------9--9--------7--7--6-|
D--7--7--------7--7-------------7--5----7--7---------7--7---------|
A-----------------------------------------------------------------|
E-----------------------------------------------------------------|


Ending

E-------------------------2------------4-----------------|
B----5-------0--------------3-------------5--------------|
G------5-------0-----------------------------------6~----|
D----------------------0------------2--------------7~----|
A--3-----------------------------------------------------|
E----------3---------------------------------------------|






Like us on Facebook