New Pony Tab - The Dead Weather






Main part
e--------------------------------|
B--------------------------------|
G--2-2-(2)-2-(2)-----------------|
D--2-2-(2)-2-(2)-----------------|
A--0-0--3--0--3/12~--------------| Repeat
E--------------------------------|

Chord used

e------------------------|
B------------------------|
G----9-------------------|
D----9-------------------|
A----7-------------------| 
E------------------------|






Like us on Facebook