No Horse Intro Tab - The Dead Weather






its my first tab so please be nice.

-------------------9-9------------------9-9---|
-------------------8-8------------------8-8---|
-------------------7-7------------------7-7---|
-8-8-8-8-8-8-8b--9-----9-9--8-8-8-8b--9-----9-|
-----------------9-----9-9------------9-----9-|
-----------------7-----7-7------------7-----7-|

-------------------9-9------------------9-9---|
-------------------8-8------------------8-8---|
-------------------7-7------------------7-7---|
-8-8-8-8-8-8-8b--9-----9-9--8-8-8-8b--9-----9-|
-----------------9-----9-9------------9-----9-|
-----------------7-----7-7------------7-----7-|

b = bend note






Like us on Facebook