So Far From Your Weapon Tab - The Dead Weather






Main riff:
e---------------------------------------------------------------------------|
b---------------------------------------------------------------------------|
g---------------------------------------------------------------------------|
d----2---2---2---2---2---2---2---2---2---2---2---2---2---2---2---2----------|
a---------------------------------------------------------------------------|
e--0---0---0---0---0---0---0---0---0---0---0---0---0---0---0---0------------|

Chorus:
e---------------------------------------------------------------------------|
b---------------------------------------------------------------------------|
g--9----------9----------9----------9---------------------------------------|
d--9----------9----------9----------9---------------------------------------|
a--7----------7----------7----------7---------------------------------------|
e---------------------------------------------------------------------------|

Bridge:
e---------------------------------------------------------------------------|
b---------------------------------------------------------------------------|
g--12---7---9-----12---7---9-----12---7---9-----12---7---9------------------|
d--12---7---9-----12---7---9-----12---7---9-----12---7---9------------------|
a--10---5---7-----10---5---7-----10---5---7-----10---5---7------------------|
e---------------------------------------------------------------------------|






Like us on Facebook