Will There Be Enough Water ver3 Tab - The Dead Weather






Ok so this is the basic tab for the song and the intro to the live version

The song is reasonably easy it sticks to the chords D C and G

So this is the intro to the live version

E---------------------------------------------------------------------------|
B---------------------------------------------------------------------------|
G---7----5----3----2----5----3----2----O------------------------------------|
D---------------------------------------------------------------------------|
A---------------------------------------------------------------------------|
E---------------------------------------------------------------------------|
Then the piano plays
       D        C        G
E------2-----------------3--------------------------------------------------|
B------3--------1-----------------------------------------------------------|
G------2--------------------------------------------------------------------|
D---------------2-----------------------------------------------------------|
A---------------3--------2--------------------------------------------------|
E---------------3--------3--------------------------------------------------|

And then jack goes on to the fiddly bits when he improvises i play this part by ear.
                  D                            C                           G
E-----------------2--------------------------------------------------------3-|
B-----------------3----------------------------1-----------------------------|
G-O----1----O-----2----O----3p2----------O------------------O----------O-----|
D-----------------------------------Oh3--------2------Oh3---------Oh3--------|
A----------------------------------------------3---------------------------2-|
E----------------------------------------------3---------------------------3-|

          D                                                   G
E----O----2---------------------------------------------------3-------------|
B----O----3-----------------------------------------------------------------|
G----O----2--------------------------3-----3p2-----------O------------------|
D----O----------------O---------O-----------------Oh3-----------------------|
A----O---------Oh3---------3----------------------------------2-------------|
E----O--------------------------------------------------------3-------------|

Thanks for viewing hope the tab was helpful

Tabbed by SamStrat94 @ Ultimate Guitar






Like us on Facebook