Seattlantis Bass Tab - The Fall Of Troy






The Fall of Troy-Seattlantis
Tuning-Standard EADG
This is a simple tab you can figure out the palm mutes and stuff and this is my first 
hope its good any correctons or hate mail email me at bpc1331@yahoo.com

Intro x2
|-------12---------10---------------------------------|
|----13----13----12---13-12---5-----------------------|
|-15----------13-----------13---5---8-5---------------|
|----------------------------------------444444-66----|

Verse  x2
|-----------------------------------------------------|
|---4/5---4/5-------4/5---4/5-------------------------|
|-6-----6-----55--6-----6-----55--4--4--4-----4--4--4-|
|-----------------------------------------------------|

Chorus  x2
|-----------------------------------------------------|
|---13------12---5------------------------------------|
|-15-----13--------5----8-5---------------------------|
|--------------------6------6---4-4--6-6--------------|

Post-Chorus (1's not 11's)
|--------3----------------------------------------|
|-------1--------55555----------------------------|
|-33-33----11-11-------------1--------------------|
|----------------------33-33---3--44-44-----6-6-6-|

Verse
Chorus
Post-Chorus

Rest then

Breakdown
|----5p0-0-------|  |---------------|
|---4------5p0-0-|  |---------------|
|----------------|  |-666666-333-111|
|-2--------------|x3|---------------|

|----5p0-0-------|  |--------------|
|---4------5p0-0-|  |--------------|
|----------------|  |-444444-------|
|-2--------------|x2|-------555-333|

|----5p0-0-------|  |---------------|
|---4------5p0-0-|  |---------------|
|----------------|  |-666666-333-111|
|-2--------------|x3|---------------|

|----5p0-0-------|  |--------------|
|---4------5p0-0-|  |--------------|
|----------------|  |-444444-------|
|-2--------------|x2|-------55555--|

|-----------------------|
|-----------1-----------|
|--------------5-4--3210|
|-3-2---1-0-------------|

Rest

|-----------------------------------------|
|----------7----------5-4-5-7------7-9-10-|
|-3~-7~-3~----10/7--3---------7-10--------|
|-----------------------------------------|

|---------------------------------|
|---5-4-7-5------------7-9-7------|
|3---------------7-10---------10--|
|---------------------------------|

|-----------------------------------|
|---5-4-5--7/5-------------7-9--5--7|
|3----------------7-----10----------|
|-----------------------------------|

|---------------------------------|
|---5-4-5-7/5------------7-9------|
|3---------------7---10-----------|
|---------------------------------|

|------------------------------------------------|
|-0/4/7-0-7--7--7--7--7---0/4/7-0-7--7--7--7--7--|
|------------------------------------------------|
|------------------------------------------------|

|------------------------------------------------|
|-0/4/7-0-7--7--7--7--7---0/4/7-0-7---2------0---|
|------------------------------------------------|
|------------------------------------------------|
Tap/play This Fast 4 times
|16-12-----|
|-----17-12|
|----------|
|----------|

and then this four times
|14-11-----|
|-----16-12|
|----------|
|----------|

|-----------------------------|
|7-7-7-7-7-7-7-7-7-7-7-7-2---0|
|-----------------------------|
|-----------------------------|

|----------------------------------|
|---5-4-5-7--------------7-9-------|
|3---------------7---10--------10--|
|----------------------------------|


|------------------------------------|
|---5-4-5--7/5------------7-9------7-|
|3---------------7---10---------10---|
|------------------------------------|

|-----------------------------------|
|---5-4-5---7/5------------7-9------|
|3---------------7---10-------------|
|-----------------------------------|

|-----------------------|
|-----------1-----------|
|--------------5-4--3210|
|-3-2---1-0-------------|
More Rest
|----5p0-0-------|  |---------------|
|---4------5p0-0-|  |---------------|
|----------------|  |-666666-333-111|
|-2--------------|x3|---------------|

|----5p0-0-------|  |--------------|
|---4------5p0-0-|  |--------------|
|----------------|  |-444444-------|
|-2--------------|x2|-------55555--|

|-----------------------|
|-----------1-----------|
|--------------5-4------|
|-3-2---1-0-------------|

|----------------------------------------|
|----------------------------------------|
|3210-3210-3210-3210-3210-3210-3210-0/16-|
|----------------------------------------|

|---------------------------------------------|
|---------------------------------------------|x2
|3210-3210-3322-1-0-326-3210-3210-3322-1-0----|
|------------------------------------------2-2|
End on
|-----|
|-----|
|-----|
|0----|