Shhh If Youre Quiet Ill Show You A Dinosaur Bass Tab - The Fall Of Troy






------------------------------------------------------------------------------
    SHHH!!! IF YOU'RE QUIET, I'LL SHOW YOU A DINOSAUR - The Fall of Troy
-------------------------------------------------------------------------------

Tabbed By : Yuneit
e-mail: see_delight@hotmail.com

Tuning: DADG

intro                                  1.
G|------------------------------------|----------|
D|------------------------------------|----------|
A|------------------------------------|----------| 2x
D|-88-88-10-77-77-99-55-55-77-33-33---|-3-5-7----|
2.
--------------|
--------------|
--------------|
-33-33-33-33--|

verse, not sure on last two fills
G|----------------------------------------|
D|----------------------------------------|
A|--------77-55-77-------4-5-7-5-4--------|
D|-888888---------777777-----------7------|

                        1, 2, 3
-----------------|------------------------|
-----------------|------------------------|
--------1-3-1-3--|------------------------|
-555555----------|3333333-----------------|


----------------------|
----------------------|
----------------------|
-33-33-33-33-0~~~-----|

chorus
G|------------------------------------------------|
D|------------------------------------------------|
A|------------------------------------------------|
D|-0-0-0-0-3-3-333-333--0-000000000--000000000----|
                            1.
----------------------|---------------------------|
----------------------|---------------------------|
----------------------|--------5--------5-------|
-0-0-0-0-3-3-333-333--|-0-5/-0----0-5/-0----------|

2.
--------------------------------------------------|
--------------------------------------------------|
--------5--------5---------5-------------------|
-0-5/-0----0-5/-0---0-5/-0---------0-00-0-0-------|


G|----------------|
D|----------------|
A|----------------|
D|-0~-------------|

G|----------13-------13-10-10-10-----------10--------------------|
D|-0000000----00000--------------0000000------00-9-11-11-11------|
A|---------------------------------------------------------------|
D|---------------------------------------------------------------|

----------------------------------|
----------------------------------| 2x
----------------------------------|
-0-00-0-6-0-6----0-00-0-3-0-3-----|

----------------------------|
----------------------------|
----------------------------|
-0-00-0-6-0-6-0-00-0-3-0-3--|

G|----------------------------------------------|
D|----------------------------------------------|
A|----------------------------------------------| 4x? or something
D|-0-2-3-6-5-12-11--0-2-3-6-5-1-0---------------|

then chorus again