You Gotta Death Wish Johnny Truant (ver2) Tab - The Fall Of Troy






The Fall of Troy-"You Got A Death Wish, Johnny Truant?"

My bad, I accidentally put guitar instead of bass and I can't change it.


Normal Tuning: GDAE
| /  slide up
|   slide down
| h  hammer-on
| p  pull-off
| ~  vibrato
| +  harmonic
| x  Mute note

0:06
G|--------------------------|
D|------22-2-2--------------|
A|00-0-0------44-4-433-3-3--|
E|--------------------------|

G|----------------------------------------------------------------------------|
D|5420-----------------------------5420-------------------22-2-2--------------|
A|-----02-3-------320------3333333------02-3--------00-0-0------44-4-433-3-3--|
E|----3-----3p0-3----3012-3------------3-----3p0-3----------------------------|x2

G|--------------------------|
D|------22-2-2--------------|
A|00-0-0------44-4-433303b--|
E|--------------------------|


0:34
G|-------------------------------------------------|
D|-----------------------------------5-------------|
A|7-------5-----5--7---7-------5------7-5h75h75h7--|
E|--00000--7-57--05-057--00000--7-57---5-----------|x2


0:47
G|----------------------5-----------------------------|
D|--------------------55----------------77-7-7575757--|
A|77-7-755-5-5------------77-7-7-55-5-5---------------|
E|------------33-3-355--------------------------------|x2

G|------------------------|
D|7-----------------------|
A|----7---4----33333333---|
E|------------------------|


1:05
G|----------------------------------------------------------------------------|
D|5420-----------------------------5420-------------------22-2-2--------------|
A|-----02-3-------320------3333333------02-3--------00-0-0------44-4-433-3-3--|
E|----3-----3p0-3----3012-3------------3-----3p0-3----------------------------|x2

G|--------------------------|
D|------22-2-2--------------|
A|00-0-0------44-4-433-3-3--|
E|--------------------------|x3


1:36
G|------------------------------------------------------------|
D|------------------------------------------------------------|
A|---------------------5555555--------------------------------|
E|555555544444447777777-------55555554444444------------------|x2

G|------|
D|------|
A|------|
E|--5~--|