Generator Solo Tab - The Holloways






----------------------------------------------------------------------------
                       The Holloways - Generator Solo
----------------------------------------------------------------------------

Tabbed By: Sam Bennett
E-mail: SamBennett89@hotmail.co.uk
Tuning: Standard (EADGBE)

This is the solo that i didn't include in my full guitar tab (the first generator guitar tab).

Enjoy!

KEY:
  ~   Vibrato
  h   Hammer
  p   Pull-off
  /   Slide
 tp   Tremelo Pick


E|---------------------------------------------------12-12-15-15-12---|
B|---------------------10--10------/13-13-13-13-13--------------------|
G|--/9-9-12-12---10-10--------10--------------------------------------|
D|--------------------------------------------------------------------|
A|--------------------------------------------------------------------|
E|--------------------------------------------------------------------|

E|----------------12-15-15-15-15-15-/20tp---20-19-17-19~---17-15-15--------|
B|--13-13-13-13--------------------------------------------------17-15-----|
G|---------------------------------------------------------------------17--|
D|-------------------------------------------------------------------------|
A|-------------------------------------------------------------------------|
E|-------------------------------------------------------------------------|

E|---------------------------------------------------------------|
B|------------15-------------------------------------------------|
G|--/12-14-17----17-14-12----------14-12-------------------------|
D|------------------------15-14~---14----14-12~--12h14-12p10-----|
A|-----------------------------------------------------------12--|
E|---------------------------------------------------------------|

E|---------------------------------------------------|
B|---------------------------------------------------|
G|--14-12--------------------------------------------|
D|--14----14-12~--12h14-12h10------------10-12~--10--|
A|----------------------------12---10-12-------------|
E|---------------------------------------------------|


Guitar 2 plays summit behind, cant work out what much of it is though.

ĂŽnscrie-te la newsletter


Like us on Facebook