Re-invent Myself Bass Tab - The Holloways




----------------------------------------------------------------------------
     Re-Invent Myself? - The Holloways
----------------------------------------------------------------------------

Tabbed By : Sol
e-mail: solcoker@hotmail.co.uk

Tuning: Standard

In this song Bryn plays along with the rhythm of the drums, so ill try to reflect this 
the tab. Just listen to it to get the rhythm right! Innit!

Inro:

G|------------------------------------|
D|------------------------------------|
A|--5---------------------------------|
E|-------5---6-7------333333333333----|

G|-------------------------------------------|
D|-------------------------------------------|
A|-5-5-55-5----------------------------------|
E|-----------55-5-55-6-7-7-77-7--33333333333-|

Verse:

G|--------------------------------|
D|--------------------------------|
A|-55-5---------------------------|
E|-------555-555-6h7-7----333-333-|

G|-------------------------------------------|
D|-------------------------------------------|
A|-5-5-55-5----------------------------------|
E|-----------55-5-55-6-7-7-77-7--33333333333-|

G|--------------------------------|
D|--------------------------------|
A|-55-5---------------------------|
E|-------555-555-6h7-7----333-333-|

G|-------------------------------------------|
D|-------------------------------------------|
A|-5-5-55-5----------------------------------|
E|-----------55-5-55-6-7-7-77-7--33333333333-|

Interlude:

G|-------------------------------------------------------------------|
D|-------------------------------------------------------------------|
A|-------------------------------------------------------------------|
E|--5------44-33--444-5---5---5---5-444-3-3-3-3-4-4-4-4-5-8-5-8-5-85-|

Chorus:

G|-----------------------------------------------------------|
D|-----------------------------------------------------------|
A|--55-5-55-5-55-5-55-5--------------7-----------7-----------|
E|----------------------7-7--10-9-7----3h4-5-55----3h4-5-55--|

Middle 8:

G|-----------------------------------|
D|-----------------------------------|
A|-33-3--------------------33-3-44-4-|
E|--------33-3-33-3-4h5-5------------|

Verse:

G|--------------------------------|
D|--------------------------------|
A|-55-5---------------------------|
E|-------555-555-6h7-7----333-333-|

G|-------------------------------------------|
D|-------------------------------------------|
A|-5-5-55-5----------------------------------|
E|-----------55-5-55-6-7-7-77-7--33333333333-|

G|--------------------------------|
D|--------------------------------|
A|-55-5---------------------------|
E|-------555-555-6h7-7----333-333-|

G|-------------------------------------------|
D|-------------------------------------------|
A|-5-5-55-5----------------------------------|
E|-----------55-5-55-6-7-7-77-7--33333333333-|

Interlude:

G|-------------------------------------------------------------------|
D|-------------------------------------------------------------------|
A|-------------------------------------------------------------------|
E|--5------44-33--444-5---5---5---5-444-3-3-3-3-4-4-4-4-5-8-5-8-5-85-|

Chorus:
                                                              x2
G|-----------------------------------------------------------|
D|-----------------------------------------------------------|
A|--55-5-55-5-55-5-55-5--------------7-----------7-----------|
E|----------------------7-7--10-9-7----3h4-5-55----3h4-5-55--|

G|-----------------------|
D|-----------------------|
A|--7--------------------|
E|------------5-5-33-4h5-|

G|------------------------------------|
D|------------------------------------|
A|--5---------------------------------|
E|-------5---6-7------333333333333----|

G|-----------------------|
D|-----------------------|
A|--5----3----2----0---5-|
E|-----------------------|

Chorus:
                                                              x3
G|-----------------------------------------------------------|
D|-----------------------------------------------------------|
A|--55-5-55-5-55-5-55-5--------------7-----------7-----------|
E|----------------------7-7--10-9-7----3h4-5-55----3h4-5-55--|

Ouro:

G|-----------------------|
D|-----------------------|
A|--7--------------------|
E|------------5-5-33-4h5-|


| /  slide up
|   slide down
| h  hammer-on
| p  pull-off
| ~  vibrato
| +  harmonic
| x  Mute note

============================================================================

ĂŽnscrie-te la newsletter


Join the ranks ! LIKE us on Facebook