Two Left Feet (ver2) Chords - The Holloways




Intro: A,D,A,F#m


Verse: (this is just for reference, use this pattern for other verses aswell)
A      D     A           F#m                
       D
        Hello, I found a stitch to wear and came out tonight
A             F#m              A            D
But everybody looks at me like some kind of tramp
    A               F#m             A      D
Coz i, i wear these holy jeans well heaven forbid
A           F#m         E                               D
And send an angel coz i need somebody tonight, somebody tonight

Chorus:
       A           D         A              F#m      
 A D A F#m
Well i cant really dance but baby won't you dance with me
           A              D           A           F#m      A D A F#m
And if you want to take a chance then baby take a chance on me
E
We're we gonna go, we're we gonna go, we're we gonna go
                  A     D   A   F#m
At the end of the night?
E
I dont care, and i dont mind
D                                   ( back to A,D,A,F#m part for verse)
As long as you keep holding me tight

Verse
Chorus
Verse
Chorus

I think the other guitar part is:e:------------------------------------|
                                 B:------------------------------------|
                                 G:------------------------------------|
                                 D:------------------------------------|
                                 A:----45-------45--7--5---------------|
                                 E:--55-------55-----------------------|

Also the fiddle part on the guitar:e:--------75--------------------------|
                                   B:-----------75-----------------------|
                                   G:--------------6---------------------|
                                   D:------------------------------------|
                                   A:------------------------------------|
                                   E:------------------------------------|

ĂŽnscrie-te la newsletter


Join the ranks ! LIKE us on Facebook