Two Left Feet Bass Tab - The Holloways






----------------------------------------------------------------------------
     Two Left Feet - The Holloways
-----------------------------------------------------------------------------

Tabbed By : Sol
e-mail: solcoker@hotmail.co.uk

Tuning: Standard

Inro:

G|---------------------------------------------------------------|
D|------------------------------------------------------4--------|
A|-----------------------------------------------4--7-----4------|
E|---5---------5------------5----------------5-5-----------------|

Verse:
                                         x 8
G|--------------------------------------|
D|---------------------------------4----|
A|---------4-5--------------4--7-----4--|
E|----5-5--------------5-5--------------|

Chorus:

G|--------------------------------------------------------------------------|
D|--------------------------------------------------------------------------|
A|--7------7-7--------5-----5-5---------7----7-7---------5~-----5-5-5-5-----|
E|-----7-------x-7-------5-------x-5-5-----7------x-7-----------------------|

Verse:
                                         x 4
G|--------------------------------------|
D|---------------------------------4----|
A|---------4-5--------------4--7-----4--|
E|----5-5--------------5-5--------------|


Chorus:

G|------------------------------------------------------------------------|
D|------------------------------------------------------------------------|
A|--7------7-7------7----5----5--------7-----7-7-----7----5-5-5-5-7-7-7-7-|
E|----9-7-------9-7--------5----5--------9-7------9-7---------------------|


G|---------------------------------|
D|--------------4------------------|
A|-------4--7-----4----------------|
E|--5-5----------------------------|

Verse:
                                         x 6
G|--------------------------------------|
D|---------------------------------4----|
A|---------4-5--------------4--7-----4--|
E|----5-5--------------5-5--------------|

Chorus:

G|--------------------------------------------------------------------------|
D|--------------------------------------------------------------------------|
A|--7------7-7--------5-----5-5---------7----7-7---------5~-----5-5-5-5-----|
E|-----7-------x-7-------5-------x-5-5-----7------x-7-----------------------|

Verse:
                                         x 4
G|--------------------------------------|
D|---------------------------------4----|
A|---------4-5--------------4--7-----4--|
E|----5-5--------------5-5--------------|

Chorus:

G|------------------------------------------------------------------------|
D|------------------------------------------------------------------------|
A|--7------7-7------7----5----5--------7-----7-7-----7----5-5-5-5-7-7-7-7-|
E|----9-7-------9-7--------5----5--------9-7------9-7---------------------|

Verse:
                                         x 12
G|--------------------------------------|
D|---------------------------------4----|
A|---------4-5--------------4--7-----4--|
E|----5-5--------------5-5--------------|

Outro

G|---------------|
D|---------------|
A|---------4-5---|
E|----5-5--------|

| /  slide up
|   slide down
| h  hammer-on
| p  pull-off
| ~  vibrato
| +  harmonic
| x  Mute note
============================================================================

ĂŽnscrie-te la newsletter


Like us on Facebook