Goodbye Mr A (ver2) Bass Tab - The Hoosiers






Song: Goodbye Mr A
Band: The Hoosiers
Bassist: Martin Skarendahl
Tuning: Standard

Hey folks, I've tried to tab this as accurately as possible. I've played through it a
and one times and am pretty such it's correct. I've done my best to tab the rhythm as
as possible but it's kind of complicated in places so you may need to listen to the 
to get it completely. This is a really catchy song and is great fun to play so I hope you
it. Please don't forget to rate!


Intro (0:10)

G|----------------|----------------|----------------|----------------|
D|----------------|----------------|----------------|----------------|
A|7-7-7-7-7-7-7-7-|6-6-6-6---------|7-7-7-7-7-7-7-7-|6-6-6-6-------6-|
E|----------------|--------4-4-4-4-|----------------|--------4-6-7---|


1st Verse (0:22)

G|----------------|----------------|----------------|----------------|
D|----------------|----------------|----------------|----------------|
A|7-7-7-7-7-7-7-7-|6-6-6-6---------|7-7-7-7-7-7-7-7-|6-6-6-6-------6-|
E|----------------|--------4-4-4-4-|----------------|--------4-6-7---|

G|----------------|----------------|----------------|----------------|
D|----------------|----------------|----------------|----------------|
A|7-7-7-7-4-4-4-4-|6-6-6-6---------|7-7-7-7-4-4-4-4-|6-6-6-6---------|
E|----------------|--------4-4-4-6-|----------------|--------4-6-4-6-|


Chorus (0:42)

G|------------------|---------------|--------------------|--------|
D|------------------|---------------|--------------------|--------|
A|----------2-------|---------------|--2------------2----|--------|
E|2-------22--2-4---|2---2--4---2-2-|22-6-4---4---2---6--|1-1-1-1-|

G|----------------|----------------|----------------|----------------|
D|----------------|----------------|----------------|----------------|
A|----------------|----------------|----------------|----------------|
E|0-0-0-0-0-0-0-0-|4-4-4-4-4-4-4-4-|0-0-0-0-0-0-0-0-|4-4-4-4-4-4-4-4-|


2nd Verse (1:08)

G|----------------|----------------|----------------|----------------|
D|----------------|----------------|----------------|----------------|
A|7-7-7-7-7-7-7-7-|6-6-6-6---------|7-7-7-7-7-7-7-7-|6-6-6-6-------6-|
E|----------------|--------4-4-4-4-|----------------|--------4-6-7---|

G|----------------|----------------|----------------|----------------|
D|----------------|----------------|----------------|----------------|
A|7-7-7-7-7-7-7-7-|6-6-6-6---------|7-7-7-7-7-7-7-7-|6-6-6-6-------6-|
E|----------------|--------4-4-4-4-|----------------|--------7-7-7---|

G|----------------|------------------|-----------------|-----------------------|
D|----------------|------------------|-----------------|-----------------------|
A|7-7-7-7-4-4-4-4-|6-6-6-6-----------|7-7-7-7-4-4-4-4/-|10-10-10-10-11-11-11-11|
E|----------------|--------4-4-4-4/7-|-----------------|-----------------------|


Chorus (1:39)

G|------------------|---------------|--------------------|--------|
D|------------------|---------------|--------------------|--------|
A|----------2-------|---------------|--2------------2----|--------|
E|2-------22--2-4---|2---2--4---2-2-|22-6-4---4---2---6--|1-1-1-1-|

G|----------------|----------------|----------------|----------------|
D|----------------|----------------|----------------|----------------|
A|----------------|----------------|----------------|----------------|
E|0-0-0-0-0-0-0-0-|4-4-4-4-4-4-4-4-|0-0-0-0-0-0-0-0-|4-4-4-4-4-4-4-4-|


Bridge (2:05)

G|----------------|------------------|-----------------|----------------|
D|----------------|------------------|-----------------|----------------|
A|7-7-7-7-7-7-7-7-|6-6-6-6-----------|7-7-7-7-7-7-9-11-|6-6-6-6-------6-|
E|----------------|--------4-4-4h6p4-|-----------------|--------4-6-7---|

G|----------------|--------------------|------------------------|------------------------|
D|----------------|--------------------|------------------------|------------------------|
A|7-7-7-7-8-8-8-8-|9-9-9-9-10-10-10-10-|11-11-11-11-12-12-12-12-|12-12-12-12-12-12-12-12-|
E|----------------|--------------------|------------------------|------------------------|

G|------------|----------------|----------------|---------------|
D|------------|----------------|----------------|---------------|
A|------------|----------------|----------------|---------------|
E|12-12-12-12-|7(r)------------|7-7-7-7-7-7-7-7-|7-7-7-7-7-7-7-7|

G|------------|----------------|----------------|
D|------------|----------------|----------------|
A|------------|----------------|----------------|
E|7(r)--------|7-7-7-7-7-7-7-7-|7-7-7-7-7-7-7-7-|


Chorus Bridge (2:42)

G|----------------|----------------|----------------|
D|----------------|----------------|----------------|
A|----------------|----------------|----------------|
E|7-7-7-7-7-7-7-7-|7-7-7-7-7-7-7-7-|7-7-7-7-7-7-7-7-|


G|----------------|----------------|----------------|
D|----------------|----------------|----------------|
A|----------------|----------------|------------6-7-|
E|7-7-7-7-7-7-7-7-|7-7-7-7-7-7-7-7-|7-7-7-7-7-9-----|

G|----------------|--------------------|----------------|
D|----------------|--------------------|----------------|
A|9-9-9-9-9-9-9-9-|11-11-11-11-9-9-9-9-|8-8-8-8-8-8-8-8-|
E|----------------|--------------------|----------------|

G|----------------|----------------|----------------|
D|----------------|----------------|----------------|
A|7-7-7-7-7-7-7-7-|6-6-6-6---------|4-4-4-4-4-4-4-4-|
E|----------------|--------4-4-4-4-|----------------|

G|----------------|----------------|----------------|----------------|
D|----------------|----------------|----------------|----------------|
A|----------------|----------------|----------------|----------------|
E|0-0-0-0-0-0-0-0-|4-4-4-4-4-4-4-4-|0-0-0-0-0-0-0-0-|4-4-4-4-4-4-4-4-|


Main Riff (3:25)

G|----------------|----------------|----------------|----------------|
D|----------------|----------------|----------------|----------------|
A|7-7-7-7-7-7-7-7-|6-6-6-6---------|7-7-7-7-7-7-7-7-|6-6-6-6---------|
E|----------------|--------4-4-4-7-|----------------|--------4-4-4-4-|

G|----------------|----------------|----------------|----------------|
D|----------------|----------------|----------------|----------------|
A|7-7-7-7-4-4-4-4-|6-6-6-6---------|7-7-7-7-4-4-4-4-|6-6-6-6---------|
E|----------------|--------4-4-6-7-|----------------|--------4-4-4-4-|

G|----------------|----------------|-----------------|----------------|
D|----------------|----------------|-----------------|----------------|
A|7-7-7-7-7-7-7-7-|6-6-6-6---------|7-7-7-7-7-9-11-9-|6-6-6-6-------6-|
E|----------------|--------4-4-4-4-|-----------------|--------4-6-7---|

G|----------------|----------------|----------------|----------------|
D|----------------|----------------|----------------|----------------|
A|7-7-7-7-4-4-4-4-|6-6-6-6---------|7-7-7-7-4-4-4-4-|6-6-6-6-------6-|
E|----------------|--------4-4-4-4-|----------------|--------4-6-7---|


Outro & Ending (4:04)

G|----------------|------------------------|--------------------------|------------------------|
D|----------------|------------------------|--------------------------|------------------------|
A|7-7-7-7-8-8-8-8-|9-9-9-9/2-10-10-10-10/2-|11-11-11-11/2-12-12-12-12-|12-12-12-12-12-12-12-12-|
E|----------------|------------------------|--------------------------|------------------------|

G|------------------------|------------------------|----------------|
D|------------------------|------------------------|----------------|
A|12-12-12-12-12-12-12-12-|12-12-12-12-12-12-12-12-|12-12-12-12-12--|
E|------------------------|------------------------|----------------|






Like us on Facebook