Little Brutes Tab - The Hoosiers






e|------------------------|---------------------|
B|-13-------13--12--------|---------------------|
G|----12-11--------11-----|-14--------/12-11----|
D|--------------------14~-|----14-13---------14-|(x6)
A|------------------------|---------------------|
E|------------------------|---------------------|

  
e|-7-7-7--7--7-|-7-7-7--7--7-|-7-7-7--7--7-|-7-7-7--7--7-|-7-7-7--7--7-|
B|-8-8-8--8--8-|-8-8-8--8--8-|-8-8-8--8--8-|-8-8-8--8--8-|-8-8-8--8--8-|
G|-9-9-9--9--9-|-9-9-9--9--9-|-9-9-9--9--9-|-9-9-9--9--9-|-9-9-9--9--9-|
D|-9-9-9--9--9-|-9-9-9--9--9-|-9-9-9--9--9-|-9-9-9--9--9-|-9-9-9--9--9-|
A|-7-7-7--7--7-|-7-7-7--7--7-|-7-7-7--7--7-|-7-7-7--7--7-|-7-7-7--7--7-|
E|-7-7-7--7--7-|-7-7-7--7--7-|-7-7-7--7--7-|-7-7-7--7--7-|-7-7-7--7--7-|
   D U D  D  U

-*-*-*-*-*-*-*-*-*-*-*-*-*-*-*-*-*-*-*-*-*-*-*-*-*-*-*-*-*-*-*-*-
e|-7-7-7--7--7-|-7-7-7--7--7-|-7-7-7--8---8--|-8--8--8---8---8--|
B|-8-8-8--7--7-|-7-7-7--7--7-|-7-7-7--8---8--|-8--8--8---8---8--|
G|-9-9-9--8--8-|-8-8-8--8--8-|-8-8-8--9---9--|-9--9--9---9---9--|
D|-9-9-9--9--9-|-9-9-9--9--9-|-9-9-9--10--10-|-10-10-10--10--10-|
A|-7-7-7--9--9-|-9-9-9--9--9-|-9-9-9--10--10-|-10-10-10--10--10-|
E|-7-7-7--7--7-|-7-7-7--7--7-|-7-7-7--8---8--|-8--8--8---8---8--|
                                                        *-(x2)-*
e|-8--8--8---7--7-|-7-7-7--7--7-|-7-7-7--7--7-|-7-7-7--7--7-|
B|-8--8--8---7--7-|-7-7-7--7--7-|-7-7-7--8--8-|-8-8-8--8--8-|
G|-9--9--9---8--8-|-8-8-8--8--8-|-8-8-8--9--9-|-9-9-9--9--9-|
D|-10-10-10--9--9-|-9-9-9--9--9-|-9-9-9--9--9-|-9-9-9--9--9-|
A|-10-10-10--9--9-|-9-9-9--9--9-|-9-9-9--7--7-|-7-7-7--7--7-|
E|-8--8--8---7--7-|-7-7-7--7--7-|-7-7-7--7--7-|-7-7-7--7--7-|
-*-*-*-*-*-*-*-*-*-*-*-*-*-*-*-*-*-*-*-*-*-*-*-*-*-*-*-*-*-*-*-*-

Just repeats throughout the song

Key:
~   - vibrato
/   - slide
U   - strum up
D   - strum down






Like us on Facebook