Money To Be Made Tab - The Hoosiers






-------------------------------------------------------------------------------
     MONEY TO BE MADE - The Hoosiers
-------------------------------------------------------------------------------
Tabbed by: Leeni
Email:haleana@hotmail.com

Tuning: Standard

Okay, this is my very first tab!!

I've been looking for this song tab EVERYWHERE and couldn't find it so here's my stab at
from listening to it on iTunes!
It's all of the guitar part there is in this song even if it is only a small part of a 
song.

Let me know what you think!

INTRO
e|---------------------------------------------------------------0----------|
B|---------------------------------3-----------0-----------3--------3-----3-|
G|--2-----2-----4-----4------2--------2--1--------1--3--------3--------3----|
D|-----0-----0-----0-----0------0-----------0-----------0-------------------|
A|--------------------------------------------------------------------------|
E|--2-----2-----3-----3------2-----2-----0-----0-----3-----3-----3-----3----|

VERSE
e|--------------------------------------------------------------------------| X 2
B|--------------------------------------------------------------------------|
G|--2-----2-----4-----4-----2-----2-----1-----1-----3-----3-----3-----3/----|
D|-----0-----0-----0-----0-----0-----0-----0-----0-----0-----0-----0--------|
A|--------------------------------------------------------------------------|
E|--2-----2-----3-----3-----2-----2-----0-----0-----3-----3-----3-----3/----|

CHORUS
e|-----------------------------------------------------X2|--ENDING--------------------|
B|-------------------------------------------------------|----------------------------|
G|-/12-----12------11-----11------7-----7-----6-----6----|--4-----4------3------3-----|
D|------0------0-------0------0------0-----0-----0-----0-|-----0-----0------0------0--|
A|-------------------------------------------------------|----------------------------|
E|-/12-----12------10-----10------7-----7-----5-----5----|--3-----3------3------3-----|

VERSE

CHORUS

BRIDGE
e|--------------------------------------------------------------------------------|
B|--------------------------------------------------------------------------------|
G|-2----2----4----4----6----6----6----6----7----7----6----6----4----4----3----3---|
D|---0----0----0----0----0----0----0----0----0----0----0----0----0----0----0----0-|
A|--------------------------------------------------------------------------------|
E|-2----2----3----3----5----5----6----6----7----7----5----5----3----3----3----3---|

--------------SLOW DOWN-------3---|
-------------------------------3--|
/7----7----6----6----4----4----3--|
---0----0----0----0----0----0-----|
----------------------------------|
/7----7----5----5----3----3----3--|


INTRO/OUTRO
e|----------------------------------------------------SLOW DOWN--0----------|
B|---------------------------------3-----------0-----------3--------3-----3-|
G|--2-----2-----4-----4------2-------2---1--------1--3--------3--------3----|
D|-----0-----0-----0-----0------0-----------0-----------0-------------------|
A|--------------------------------------------------------------------------|
E|--2-----2-----3-----3------2-----2-----0-----0-----3-----3-----3-----3----|


| /  slide up
|   slide down
| h  hammer-on
| p  pull-off
| ~  vibrato
| +  harmonic
| x  Mute note
===============================================================================






Like us on Facebook