Crossing The Rubicon Intro Tab - The Human Abstract




crossing the rubicon the human abstract

this is a first for me, enjoy


Guitar 1 & Guitar 2 intro

14-15-14-12-14-15-14-12-----------------------------------------------|
-----------------------15-13-12-13-12-13-12-13-17-19-17-15-17-19-17-15|
----------------------------------------------------------------------|
----------------------------------------------------------------------|
----------------------------------------------------------------------|
----------------------------------------------------------------------|

---------------------------------------------------------------------------|
--------------------------15-17-15-13-15-17-15-13---------------13-15-13-12|
17-16-14-16-14-16-16-14-16-----------------------16-14-12-14-12-14---------|
---------------------------------------------------------------------------|
---------------------------------------------------------------------------|
---------------------------------------------------------------------------|

-----------------------------|
---------------------------12|
14-12-11-12--------11-12-14--|
-----------10 12 14----------|
-----------------------------|
-----------------------------|


14-15-14-12-14-15-14-12-----------------------------------------------|
-----------------------15-13-12-13-12-13-12-13-17-19-17-15-17-19-17-15|
----------------------------------------------------------------------|
----------------------------------------------------------------------|
----------------------------------------------------------------------|
----------------------------------------------------------------------|

-------------------------------------------------------------------|
--------------------------15-17-15-13-15-17-15-13------------------|
17-16-14-16-14-16-16-14-16-----------------------16-14-12-14-12-14-|
-------------------------------------------------------------------|
-------------------------------------------------------------------|
-------------------------------------------------------------------|

----------------------------------------|
13-15-13-12-13-13-12-13-12-10-----------|
-----------------------------12-11-9-8-9|
----------------------------------------|
----------------------------------------|
----------------------------------------|  all x2
played together




ĂŽnscrie-te la newsletter


Join the ranks ! LIKE us on Facebook