Crossing The Rubicon Tab - The Human Abstract




 The Human Abstact
 Crossing the Rubicon
 Nocturne
 Tabbed by: !normajean!

 this is the intro, the main riff, and some other random parts that sound
 really awesome.

                   intro
|-14-15-14-12-14-15-14-12-------------------------|
|-------------------------15-13-12-13-12-13-12-13-|
|-------------------------------------------------|
|-------------------------------------------------|
|-------------------------------------------------|
|-------------------------------------------------|

|-------------------------------------------------|
|-17-19-17-15-17-19-17-15-------------------------|
|-------------------------17-16-14-16-14-16-14-16-|
|-------------------------------------------------|
|-------------------------------------------------|
|-------------------------------------------------|

|-------------------------------------------------|
|-15-17-15-13-15-17-15-13-------------------------|
|-------------------------16-14-12-14-12-14-12-14-|
|-------------------------------------------------|
|-------------------------------------------------|
|-------------------------------------------------|

|-------------------------------------------------|
|-13-15-13-12-------------------------------12----|
|-------------14-12-11-12----------11-12-14-------|
|-------------------------10-12-14----------------|
|-------------------------------------------------|
|-------------------------------------------------|

|-14-15-14-12-14-15-14-12-------------------------|
|-------------------------15-13-12-13-12-13-12-13-|
|-------------------------------------------------|
|-------------------------------------------------|
|-------------------------------------------------|
|-------------------------------------------------|

|-------------------------------------------------|
|-17-19-17-15-17-19-17-15-------------------------|
|-------------------------17-16-14-16-14-16-14-16-|
|-------------------------------------------------|
|-------------------------------------------------|
|-------------------------------------------------|

|-------------------------------------------------|
|-15-17-15-13-15-17-15-13-------------------------|
|-------------------------16-14-12-14-12-14-12-14-|
|-------------------------------------------------|
|-------------------------------------------------|
|-------------------------------------------------|

|-------------------------------------------------|
|-13-15-13-12-12-13-12-10-------------------------|
|-------------------------12-11-9-8-9-------------|
|-------------------------------------------------|
|-------------------------------------------------|
|-------------------------------------------------|


|------------------|
|------------------|
|------------------|
|---5---6----------|
|---7---4----------|
|-00--00-----0-5^--|
  ..  ..     .
this is when the vocals come in
|-----------------------------------------------|
|-----------------------------------------------|
|-----------------------------------------------|
|------5----5-4-----------4----5-4-2h4p2p0------|
|-7777---77-----00-2---22---22------------------|
|-----------------------------------------------|
  ....   ..     ..     ..   ..
|-----------------------------------------------|
|-----------------------------------------------|
|-----------------------------------------------|
|------2h4----2-4-5-------------7-5-4h5p4-------|
|-3333-----33-------5--559p5-55----------6------|
|-----------------------------------------------|
  ....     ..          ..    ..

|-----------------------------------------------|
|-----------------------------------------------|
|-----------------------------------------------|
|------5----5-4-----------4----5-4-2h4p2p0------|
|-7777---77-----00-2^--22---22------------------|
|-----------------------------------------------|
  ....   ..     ..     ..   ..

|-----------------------------------------------|
|-----------------------------------------------|
|-----------------------------------------------|
|------2h4----2-4-5-------------7-5-4h5p4-------|
|-3333-----33-------5--559p5-55----------6------|
|-----------------------------------------------|
  ....     ..          ..    ..

this is the cool part during the chorus
|-------------------------------------------------------|
|-------------------17-----19-----20----22b--22b--22-20-|
|----------16-17-19-------------------------------------|
|-16-17-19----------------------------------------------|
|-------------------------------------------------------|
|-------------------------------------------------------|

well thats it for now. i might do some other parts later.

 ^ pinch harmonics
 h hammer on
 p pull off
 b bend
 . palm mute

ĂŽnscrie-te la newsletter


Join the ranks ! LIKE us on Facebook