Mea Culpa Intro Tab - The Human Abstract




Mea Culpa
The Human Abstract
Nocturne

Drop D (DADGBe)

Guitar 1
e|---------------------------------------------------------------------------|
B|---------------------------------------------------------------------------|
G|--------------------7------7-----------------------------------------------|
D|------9------9----9------9-------7-----7-----4-----4-----2-----2-----4-----|
A|-7-10---7-10---10-----10-----6-9---6-9---2-6---2-6---0-3---0-3---2-6-------|
D|---------------------------------------------------------------------------|
PM......................................................................

e|--------------------------------|
B|--------------------------------|
G|--------------------------------|
D|-----4-----5-----4-----5-----7--| x2 (both parts)
A|-2-6---3-6---2-6---3-6---6-9----|
D|--------------------------------|
PM..............................

Then Finish On
e|--------------|
B|--------------|
G|-11-12~-------|
D|--------------|
A|--------------|
D|--------------|

Guitar 2 (Harmonising)
e|---------------------------------------------------------------------------|
B|---------------------------------------------------------------------------|
G|---------------------------------------------------------------------------|
D|-----5-------5-------5-----4-4-1-2-4-5-4-4-2-1-2-2-2-2-2-1-2-2-1-7-2-4-5-4-|
A|-7-----7-7-----7-0-2---2-2-------------------------------------------------|
D|---9-------9---------------------------------------------------------------|
PM..........................................................................

e|-----------------|
B|-----------------|
G|-----------------|
D|-4-1-1-1-2-1-2-4-| x2 (both bits) 
A|-----------------|
D|-----------------|
PM.................

Then Finish On
e|--------------|
B|--------------|
G|-8---9~-------|
D|--------------|
A|--------------|
D|--------------|

ĂŽnscrie-te la newsletter


Join the ranks ! LIKE us on Facebook