Vela Together We Await The Storm Intro Tab - The Human Abstract




-------------------------------------------------------------------------------
     Vela, Together We Await the Storm - The Human Abstract
-------------------------------------------------------------------------------
Tabbed by: Brian Myers
Email: Garageguitar8362@aim.com

Tuning:drop d down full step(all guitars)



intro(both guitars)                         X2
D|-----------------------------------------|
A|-----------------------------------------|
F|-----------------------------------------|
C|-0---------------------------------------|
G|-0---5-7-8-7-5p7h5-----------------------|
C|-0-------------------8~~~~~~~~-7~~~~~~~~-|

 
                                            X2
D|-----------------------------------------|
A|-----------------------------------------|
F|-----------------------------------------|
C|-0---------------------------------------|
G|-0---5-7-8-7-5p7h5-----------------------|
C|-0-------------------8~~~~~~~~-7~~~~~~~~-|
 |
D|-----------------------------------------|
A|-----------------------------------------|
F|-----------------------------------------|
C|-0---------------------------------------|
G|-0---8-10-12-10-8p10h8-5~~~~~~-4~~~~~~---|
C|-0---------------------------------------|
 |                                           
D|-----------------------------------------|
A|-----------------------------------------|
F|-----------------------------------------|
C|-000-00-00-000-00-00-888-88-88-777-77-77-|
G|-000-00-00-000-00-00-888-88-88-777-77-77-|
C|-000-00-00-000-00-00-888-88-88-777-77-77-|


                                            X2
D|-----------------------------------------|
A|-----------------------------------------|
F|-----------------------------------------|
C|-0---------------------------------------|
G|-0---5-7-8-7-5p7h5-----------------------|
C|-0-------------------8~~~~~~~~-7~~~~~~~~-|
 |
D|-----------------------------------------|
A|-----------------------------------------|
F|-----------------------------------------|
C|-0--------------------12~~~~~-11~~~~~~~~-|
G|-0---8-10-12-10-8p10h8-------------------|
C|-0---------------------------------------|
 |                                           
D|-----------------------------------------|
A|-----------------------------------------|
F|-----------------------------------------|
C|-000-00-00-000-00-00-888-88-88-777-77-77-|
G|-000-00-00-000-00-00-888-88-88-777-77-77-|
C|-000-00-00-000-00-00-888-88-88-777-77-77-|
   *** ** ** *** ** ** *** ** ** *** ** **



| /  slide up
|   slide down
| h  hammer-on
| p  pull-off
| ~  vibrato
| +  harmonic
| x  Mute note
| *  Palm Mute
===============================================================================

http://www.myspace.com/thehumanabstract

ĂŽnscrie-te la newsletter


Join the ranks ! LIKE us on Facebook