Good Ones Tab - The Kills






play this twice
E---------------------------------|
B---------------------------------|
G---------------------------------|
D-997-9--77--7----------9979------|
A----9-----97---997-79------------|
E------------------9--------------|

during the verses play always
E-----------------------------------|
B-----------------------------------|
G-----------------------------------|
D-----------------------------------|
A-0-22--0-22--0-22--0-22--0-22--022-|
E-----------------------------------|

Verse 1:
Took a car to the part of the city where the city runs out of the street lights.
God know's it's the way that it goes that we're never gonna catch any daylight.
My little sister's eyes so wide, they must have been the size of the city moon tonight.
My little sister's eyes so wide, they must have been the size of the city.

Chorus:
E---------------------------------|
B---------------------------------|
G---------------------------------|
D-997-9--77--7----------997-------|
A----9-----97---997-79-----9------|
E------------------9--------------|
Did you get the real good ones? Did you get the good ones?
E----------------------------------------|
B----------------------------------------|
G----------------------------------------|
D-997-9--77--7----------99797-7-99797-7--|
A----9-----97---997-79-------9-------9---|
E------------------9---------------------|
Did you get the real good ones? Did you get the good ones?

Verse 2:
Did you get me the good ones? The real good ones what you got?
Take the water for the water tastes good. I took the water and the water was hot.
Once in a while... once in a while you've got to burn your lips to keep your feelings alive.
Once in a while... once in a while you've got to burn down your house to keep your dreamings alive.

Play the same like 1st chorus
Did you get the real good ones? Did you get the good ones?
Did you get the real good ones? Did you get the good ones?
Did you get the real good ones? Did you get me the good ones?
Did you get the real good ones? Did you get me the good ones?

have fun with this very easy song!

please rate!






Like us on Facebook