Superstition (ver2) Tab - The Kills






open G tuning, capo 4th fret.

tabs are in relation to capo.

main riff:
 B            D  E
-----x------------------x--------------------|
-----x------------------x--------------------|
-0---x---0----3-3-5-0---x----0---3-3-3-3-0---|
-0---x---0----3-3-5-0---x----0---3-3-3-3-0---|
-0---x---0----3-3-5-0---x----0---3-3-3-3-0---|
(0)--x-------(3)-(5)---------x----(3)--------|

notes in brackets just add a little more bass.  repeat.  to get that great horrible 
sound twang crunch, pick behind the bridge.

bridge:

-0-0-0-0-0-0-0-0-0-0-0-0-0-0-0-0-0-0-0-0-0-0----|
-0-0-0-0-0-0-0-0-0-0-0-0-0-0-0-0-0-0-0-0-0-0----|
-0-0-0-0-0-0-0-0-0-0-0-0-0-0-0-0-0-0-0-0-0-0-5--|b
-0-0-0-0-0-0-0-0-0-0-0-0-0-0-0-0-0-0-0-0-0-0-5--|b
-0-0-0-0-0-0-0-3-0-0-0-0-0-0-0-3-0-0-0-0-0-3-5--|b
---------------3---------------3-----------3----|

a few times, then repeat same with...

------------------|
------------------|
------------------|
------------------|
5sb7----5b7r5p3-0-|
---------------3--|

at the end.  sb standing for slow bend, did i make that up?

the end is more or less the same.

Alex






Like us on Facebook