Cut That City Tab - The Mars Volta




These are the chords. The timing is not right on, but if your worth a
damn
you'll figure it out.
E  :--------------------------------------|---------------------|------|
B  :13xx-13--xx13--13---13--xx-13-13----13|xx13xx13-13--13-13-13|-11-13|
G  :12xx-12--xx12--12---12--xx-12-12----12|xx12xx12-12--12-12-12|-10-12|
D  :10xx-10--xx10--10---10--xx-10-10----10|xx10xx10-10--10-10-10|--8-10|
A  :10xx-10--xx10--10---10--xx-10-10----10|xx10xx10-10--10-10-10|--8-10|
E  :--------------------------------------|---------------------|------|
 
E  :--------------------------------------|---------------------|------|
B  :--------------------------------------|---------------------|------|
G  :-5-5----8--8-10------12-/10----/8-----|---------------------|------|
D  :--------------------------------------|---------------------|------|
A  :-3-3----6--6--8------10-/-8----/6-----|---------------------|------|
E  :--------------------------------------|---------------------|------|
 
E  :--------------------------------------|---------------------|------|
B  :--------------------------------------|---------------------|------|
G  :-5--------------4-----------2---------|---7----------8------|----10|
D  :-5--------------4-----------2---------|---7----------8------|----10|
A  :-3--------------2-----------0---------|---5----------6------|-----8|
E  :-3--------------2---------------------|---------------------|------|
 
E  :--------------------------------------|---------------------|------|
B  :-6----------------------4-------------|---------------------|------|
G  :------5-----------4-------------------|---------------------|------|
D  :------------4-------------------------|---------------------|------|
A  :--------------------------------------|---------------------|------|
E  :--------------------------------------|---------------------|------|
 
E  :-0----0------------------------------0|---------------------|------|
B  :-4----4---------------------4---------|---4-----------------|------|
G  :-7----7--------------7----------------|---------------------|------|
D  :--------------------------------------|---------------------|------|
A  :--------------------------------------|---------------------|------|
E  :--------------------------------------|---------------------|------|
ĂŽnscrie-te la newsletter


Join the ranks ! LIKE us on Facebook