Viscera Eyes (ver3) Tab - The Mars Volta




guitar riff
|-------------------------------------------------------------------|
|-------------------------------------------------------------------|
|-------------111---------------------------------------------------|
|---3333333---333--111--222222--------------------------------------|
|---5555555---333--333--444444--------------------------------------|
|---5555555--------333--444444--------------------------------------|


solo
|------10------13----------------------------------------13---------|
|--13------12------12-------------------11---13--15-----------------|
|----------------------12--------14---------------------------------|
|---------------------------12-------15-----------------------------|
|-------------------------------------------------------------------|
|-------------------------------------------------------------------|

|-------------------------------------------------------------------|
|-15-13-15---13--11--13--11--10--11----10---------------------------|
|------------------------------------------10-----------------------|
|----------------------------------------------10-------------------|
|-------------------------------------------------------------------|
|-------------------------------------------------------------------|

|--------------------------------------10----10---13----15-----17---|
|--------------13---------11-------11-------------------------------|
|----10-------------------------------------------------------------|
|-10----10----------10---------10-----------------------------------|
|-------------------------------------------------------------------|
|-------------------------------------------------------------------|

the solo might be a little off but its mars volta and no one can perfectly tab down a solo by them.
ĂŽnscrie-te la newsletter


Join the ranks ! LIKE us on Facebook