Green Gloves Tab - The National




song      : green gloves
artist    : the national
tabbed by : oneshotnothing

standard tuning

after watching some youtube footage, i'm sure there's no capo


VERSE Part A (rhythm) - barre 2

e-|--------------------------------|--------------------------------|
b-|--------------------------------|--------------------------------|
g-|----2-------2-------2-------2---|----2-------2-------2-------2---|
d-|--4---4---4---4---2---2---2---2-|--4---4---4---4---2---2---2---2-|
a-|--------5-----------------------|--------5-----------------------|
E-|3---------------5-------2-------|3---------------5-------5-------|
  |^   *   ^   *   ^   *   ^   *   |^   *   ^   *   ^   *   ^   *   |
   1       2       3       4        1       2       3       4        

e-|--------------------------------|--------------------------------|
b-|--------------------------------|--------------------------------|
g-|----2-------2-------2-------2---|----2-------2-------2-------2---|
d-|--4---4---4---4---2---2---2---2-|--4---4---4---4---2---2---2---2-|
a-|--------5-----------------------|--------5-----------------------|
E-|3---------------5-------2-------|3---------------5-------5-------|
  |^   *   ^   *   ^   *   ^   *   |^   *   ^   *   ^   *   ^   *   |
   1       2       3       4        1       2       3       4        

VERSE Part B (ryhthm) - barre 4

e-|--------------------------------|--------------------------------|
b-|--------------------------------|--------------------------------|
g-|----4---------------4-------4---|----4---------------4-------4---|
d-|--4---4---4---4---4---4---4---4-|--4---4---4---4---4---4---4---4-|
a-|--------5---4-----------7-------|--------5---4-------------------|
E-|7---------------5---------------|7---------------5-------5-------|
  |^   *   ^   *   ^   *   ^   *   |^   *   ^   *   ^   *   ^   *   |
   1       2       3       4        1       2       3       4        


VERSE Part A (lead)

e-|----------------------------------------------------------------|
b-|----------------------------------------------------------------|
g-|----12--12--12--1211--11--11--11--9---9---9---9------7-------|
d-|----------------------------------------------------------------|
a-|----10--10--10--10-9---9---9---9--7---7---7---7------5-------|
E-|----------------------------------------------------------------|
   ^   '   *   '   ^   '   *   '   ^   '   *   '   ^   '   *   '   |
   1               2               3               4               

e-|----------------------------------------------------------------|
b-|----------------------------------------------------------------|
g-|---/12--12--12--1211--11--11--11--9---9---9---9-------9---9---|
d-|----------------------------------------------------------------|
a-|---/10--10--10--10-9---9---9---9--7---7---7---7-------7---7---|
E-|----------------------------------------------------------------|
   ^   '   *   '   ^   '   *   '   ^   '   *   '   ^   '   *   '   |
   1               2               3               4               


VERSE Part B (lead)

e-|----------------------------------------------------------------|
b-|----------------------------------------------------------------|
g-|----16--16--16--16-14--14--14--14-9---9---9---9/------11------|
d-|----------------------------------------------------------------|
a-|----14--14--14--14-12--12--12--12-7---7---7---7/------9-------|
E-|----------------------------------------------------------------|
   ^   '   *   '   ^   '   *   '   ^   '   *   '   ^   '   *   '   |
   1               2               3               4               

e-|----------------------------------------------------------------|
b-|----------------------------------------------------------------|
g-|---/16--16--16--16-14--14--14--14------14--14--14------14--14--|
d-|----------------------------------------------------------------|
a-|---/14--14--14--14-12--12--12--12------12--12--12------12--12--|
E-|----------------------------------------------------------------|
   ^   '   *   '   ^   '   *   '   ^   '   *   '   ^   '   *   '   |
   1               2               3               4               


CHORUS

e-|----2-------2-------2-------2---|--------------------------------|
b-|--3---3---3---3---3---3---3---3-|----2-------2-------2-----------|
g-|--------2---------------2-------|--2---2---2---2---2---2---------|
d-|0---------------0---------------|--------------------------------|
a-|--------------------------------|--------4-----------------------|
E-|--------------------------------|2---------------2-------2---4---|
  |^   *   ^   *   ^   *   ^   *   |^   *   ^   *   ^   *   ^   *   |
   1       2       3       4        1       2       3       4        

e-|--------------------------------|--------------------------------|
b-|----2-------2-------2-------2---|----3-------3-------3-------3---|
g-|--2---2---2---2---2---2---2---2-|--4---4---4---4---4---4---4---4-|
d-|--------2---------------2-------|--------4---------------4-------|
a-|--------------------------------|2---------------2---------------|
E-|5---------------5---------------|--------------------------------|
  |^   *   ^   *   ^   *   ^   *   |^   *   ^   *   ^   *   ^   *   |
   1       2       3       4        1       2       3       4        

e-|----2-------2-------2-------2---|--------------------------------|
b-|--3---3---3---3---3---3---3---3-|----2-------2-------2-----------|
g-|--------2---------------2-------|--2---2---2---2---2---2---------|
d-|0---------------0---------------|--------------------------------|
a-|--------------------------------|--------4-----------------------|
E-|--------------------------------|2---------------2-------2---4---|
  |^   *   ^   *   ^   *   ^   *   |^   *   ^   *   ^   *   ^   *   |
   1       2       3       4        1       2       3       4        

e-|--------------------------------|--------------------------------|
b-|----2-------2-------2-------2---|----3-------3-------3-------3---|
g-|--2---2---2---2---2---2---2---2-|--4---4---4---4---4---4---4---4-|
d-|--------2---------------2-------|--------4-----------------------|
a-|--------------------------------|2---------------2-------0-------|
E-|5---------------5---------------|--------------------------------|
  |^   *   ^   *   ^   *   ^   *   |^   *   ^   *   ^   *   ^   *   |
   1       2       3       4        1       2       3       4        

e-|--------------------------------|--------------------------------|
b-|----3-------3-------3-------3---|----3-------3-------3-----------|
g-|--4---4-------4---4---4-------4-|--4---4-------4---4---4---------|
d-|--------4-----------------------|--------4---------------4-------|
a-|--------------------------------|--------------------------------|
E-|3---------------3-------2-------|0---------------0---------------|
  |^   *   ^   *   ^   *   ^   *   |^   *   ^   *   ^   *   ^   *   |
   1       2       3       4        1       2       3       4        


ĂŽnscrie-te la newsletter


Join the ranks ! LIKE us on Facebook