Start A War Tab - The National




Guitar 1 The entire song:

e:----------------------------------------------------------------------------------|
B:-----13---------13--------13--------13--------13--------13--------13--------13----|
G:---12--12-----12--12----12--12----12--12----12--12----12--12----12--12----12--12--|
D:-10 -------10---------12--------10----------------------------10--------10--------|
A:------------------------------------------12--------10----------------------------|
E:----------------------------------------------------------------------------------|

Guitar 2 Verse:

e:--------------------------------------------------------------------------------|
B:-----13--------13-------13--------13--------13--------13-------13-------13------|
G:-----12--------12-------12--------12--------12--------12-------12-------12------|
D:-10 ------10--------12--------10------------------------------------------------|
A:----------------------------------------12--------10----------------------------|
E:-----------------------------------------------------------8--------8-----------|

Guitar 2 Chorus:

e:--------------------------------------------------------------------------------|
B:-----13----------------13---------13--------13--------13-------13-------13------|
G:-----12----------------12---------12--------12--------12-------12-------12------|
D:-10 -----10---12---12---------10------------------10----------------------------|
A:----------------------------------------12--------------------------------------|
E:-----------------------------------------------------------8--------8-----------|



That's about it, enjoy the song.

ĂŽnscrie-te la newsletter


Join the ranks ! LIKE us on Facebook