The Geese Of Beverly Road Tab - The National




The Geese of Beverly Road
by The National
from the album Alligator
tabbed by Eric Bonkowski (fixxxer411@yahoo.com)
Key of Am


   Am                          G                 C
|----------------------0--------------------------------------------|
|--1----------1---1-3-----3--1--------------------------1-----------|
|--2-----0h2----2--------------0---------0--------------0-----------|
|--2--------------------------------0h2-----2--0---0h2--------------|
|--0-----0---------------------------------------3------3-----------|
|------------------------------3------------------------------------|
We'll take ourselves out in the street
   And wear the blood in our cheeks
   Like red roses
   We'll go from car to sleeping car
   And whisper in their sleeping ears
   We were here, we were here
   We'll set off the geese of Beverly Road


  C/G             G
   Hey, love, we'll get away with it
         Am                      F
   We'll run like we're awesome, totally genius
        C/G             G
   Hey, love, we'll get away with it
         Am                       F
   We'll run like we're awesome 

     C (strum)            G (strum)
|-------0---------0----------0---------0-------------------|
|----1----3-1--1----3-1---1----3-1--1----3-1---------------|
|----0---------0----------0---------0----------------------|
|----2---------2----------0---------0----------------------|
|----3---------3----------x---------x----------------------|
|-------------------------3---------3----------------------|
We're the heirs to the glimmering world
We're the heirs to the glimmering world
We're the heirs to the glimmering world

ĂŽnscrie-te la newsletter


Join the ranks ! LIKE us on Facebook