Wasp Nest Tab - The National




Song: Wasp Nest
Band: The National
Album: Cherry Tree EP

Another great song by The National...
Comments are welcome :) Pedomint - Rags

Capo: 1

[Intro & Verse 1]
e|---0---0---0---0----0-----------|
B|---0---0---0---0----0-----------|
G|-1---1--------------------------|
D|---------2---2------------------|
A|------------------0-------------|
E|--------------------------------|

[Chorus & Verse 2/3]
e|---2---0---2---0----2--2p0------|
B|---0---0---0---0----0-----------|
G|-1---1--------------------------|
D|---------2---2------------------|
A|------------------0-------------|
E|--------------------------------|

[Verse 1]
Youre cussing a storm in a cocktail dress your mother wore when she was young
Red sun saint around your neck
A wet martini in a paper cup

[Chorus]
Youre a wasp nest, youre a wasp nest.

[Verse 2]
Your eyes are broken bottles
And Im afraid to ask
And all your wrath and cutting beauty
Youre poison in the pretty glass

[Chorus]
Youre a wasp nest, youre a wasp nest

[Verse 3]
Youre all humming live wires under your killing clothes.
Get over here, I wanna kiss your skinny throat

[Chorus]
Youre a wasp nest, youre a wasp nest

Înscrie-te la newsletter


Join the ranks ! LIKE us on Facebook