Almanac Bass Tab - The Others




almanac - the others
-------------------------------------------------------------------------------

Tabbed By : jonas schlechtweg
e-mail: jonasschlechtweg@gmail.com

Tuning:

G|---------------------------------------------------------------------|
D|---------9-9-9----------9--------------------------------------------|
A|---------------------------------------------------------------------| x2
E|--7--7----------7-7-7------------------------------------------------|

G|---------------------------------------------------------------------|
D|-------9-9-9---------9-9-9------9-9-9--------9-9-9-------------------|
A|---------------------------------------------------------------------|
E|--7-7---------7-7-7--------7-7---------7-7-7-------------------------|

verse + prechorus and other stuff except the chorus

G|----------------------------------------------------------------------|
D|----------------------------------------------------------------------|
A|--------------------7-7-7-7---9-9-9-9---------------------------------|
E|---7-7-7-7-7-7-7-7----------------------------------------------------|

chorus

G|----9---7-------------------------------------------------------------|
D|------------7---7-7---------------------------------------------------|
A|-----------------------7-7---9---9-9----------------------------------|
E|----------------------------------------------------------------------|

that's it question mail me at jonasschlechtweg@gmail.com

| /  slide up
|   slide down
| h  hammer-on
| p  pull-off
| ~  vibrato
| +  harmonic
| x  Mute note
============================================================

ĂŽnscrie-te la newsletter


Join the ranks ! LIKE us on Facebook