How I Nearly Lost You Bass Tab - The Others




how i nearly lost you - the others

-------------------------------------------------------------------------------

Tabbed By : jonasschlechtweg@hotmail.com
e-mail: jonasschlechtweg@gmail.com

Tuning:standard

intro + verse  somethimes the second riff 
G|---------6--4h6--9-6-4h6--------6-6-4-6--9-6-9-6-----------------------|
D|-----------------------------------------------------------------------|
A|---0------------------------0------------------------------------------|
E|-----------------------------------------------------------------------|
             somethimes 
G|---11-11---11-9----|-------------|------12--12--12--12-----------------|
D|-------------------|-------------|-------------------------------------|
A|-------------------|-5-5-5-5-----|-------------------------------------|
E|-------------------|-------------|-------------------------------------|


 chorus

G|------------------------------------------------------------------------|
D|------------------------------------------------------------------------| 
A|--2-2-2-2-2-2-2-2-2-2-2-2-2-2-2-2---5-5-5-5-5-5-5-5-5-5-5-5-5-5-5-------|
E|------------------------------------------------------------------------|

G|-------------------------------------------------------------------------|
D|-------------------------------------------------12-12-12--11-11-11--9-9-|
A|2-2-2-2-2-2-2-2-2-2-2-2-2-2-2-2--5-5-5-5-5-5-5-5-------------------------|
E|-------------------------------------------------------------------------|

G|-----------------------------------------------------------------------|
D|-----------------------------------------------------------------------| 
A|--2-2-2-2-2-2-2-2-2-2-2-2-2-2-2-2---5-5-5-5-5-5-5-5-5-5-5-5-5-5-5------|x2
E|-----------------------------------------------------------------------|

then a part with 4 notes when everything is still

G|---11----9----------------------------------------------------------|
D|-------------11---9-------------------------------------------------|
A|--------------------------------------------------------------------|
E|--------------------------------------------------------------------|
play the verse again only after 4 times play this

 play this once       then play this all the time folowed by
G|--18-18-18-18-16-14-14-14-14-14-14--|--18-18-18-18-16-14-14-14-----------|
D|------------------------------------|--------------------------14-14-----|
A|------------------------------------|------------------------------------|
E|------------------------------------|------------------------------------|

G|---11-11---11-9----|-------------|------12--12--12--12-------------------|
D|-------------------|-------------|---------------------------------------|
A|-------------------|-5-5-5-5-----|---------------------------------------|
E|-------------------|-------------|---------------------------------------|

then play the chorus again

and end on this note

G|-------------------------------------------------------------------|
D|-------------------------------------------------------------------|
A|-------------------------------------------------------------------|
E|------7~-----------------------------------------------------------|

questions mail me :). but listen to the song first cause at all times
you can hear the bassguitar :). you'll figure it out comment me plss
and rate :)

| /  slide up
|   slide down
| h  hammer-on
| p  pull-off
| ~  vibrato
| +  harmonic
| x  Mute note
=======================================================================

ĂŽnscrie-te la newsletter


Join the ranks ! LIKE us on Facebook