Demolition Man Bass Tab - The Police






Demolition Man
--------------


Performed By The Police
Tabbed by Malav Trivedi

G-------------------------5h6--
D---5-7------5-7------5-7------
A-7--------7--------7----------
E------------------------------

G------------------------------*
D---5-5-7-----5-7--------------*
A-7---------7--------0-3-5-0---* Repeated through the whole song
E------------------------------*






Like us on Facebook