Message In A Bottle (ver4) Bass Tab - The Police






whats up, this song is a classic so play it right. dont even try to say this tab is 
because my band covered it and me, the bassist, played this and it sounded perfect.


standerd tuning

verse
|-----------------------|
|------------------4----|
|----4-4--0-0--2-2--4---|
|-----------------------|


chorus
|-----------------|
|-----------------|play
|--00000000555777-|2x
|-----------------|

|---------------------------------------------------------------------|
|-444444444-7-00000000-7-4444444-7-00000000---------------------------|
|---------------------------------------------------------------------|
|--------------------------------------------9--9--9---5-5-5--4-4-4---|

|-----------------------------------------------------------|
|-----------------------------------------------------------|
|-----------------------------------------------------------|
|--9--9--9---5-5-5--4-4-4-----9--9--9---5-5-5--4-4-4--3~~~~-|

and thats about it just listen to the song and you'll see
email me at bartkowiakalex@yahoo.com if u have any questions
and ultimate guitar better use this tab its 100% correct!!!






Like us on Facebook