Next To You Bass Tab - The Police






Next to You
by the Police
transcribed by kevin gardner code@wam.umd.edu
prepared for computer tab by kevin gardner code@wam.umd.edu
                        
bass lines for verse one

|---------------------------------| --------
|---------------------------------|  8X    |
|-5-5-0-0-0-----------------------|        |
|--------------0-pound------------|  8th time 
                                    --dont pound

bass line for chorus one
|--------------------------------------|
|--------------------------------------|
|-4-pound--5-pound----5-5h7--5-5-5-5h7-|
|-------------------0------------------|

|--------------------------------------|
|--------------------------------------|
|-4-pound--5-pound----5-5h7---5-5------|
|-------------------0------------------|

bass lines for verse two 

|---------------------------------| --------
|---------------------------------|  4X    |
|-5-5-0-0-0-----------------------|        |
|--------------0-pound------------|  4th time 
                                    --dont pound

bass line for chorus two
|--------------------------------------| 






Like us on Facebook