Walking On The Moon (ver2) Bass Tab - The Police






This is a simple bass tab, created listening to the song. Hoping there are no mistakes XD

The Police: Walking On The Moon
Bass TAB
by EleGoS


    VERSE:
G|---------------||
D|--------3-2----||
A|--3-3-5-----3--||
E|---------------||
    
    CHORUS START:
G|-----------------||
D|----------5-5-5--||
A|--3-3-5-5--------||
E|-----------------||
    
    CHORUS:
G|-----------------------------------||
D|-----------------------------------||
A|--1-1-1-3-----------3-3-3-------0--||
E|----------1-1-1-1-3-------3-3-3----||
     
     CHORUS FINAL
G|-----------------------------------||
D|-----------------------------------||
A|--1-1-1-3-----------3-3-3---3-3-5--||
E|----------1-1-1-1-3-------3--------||






Like us on Facebook