Level Solo Tab - The Raconteurs






The Raconteurs - Level Solo

Solo
|--------------------------|------------------------------|
|--------------------------|------------------------------|
|--------10----------12-12-|--------10----10--------------|
|--12-12----12-12h15-------|--12-12----12----12-10-12-----|
|--------------------------|--------------------------14--|
|--------------------------|------------------------------|

|-----------------------------------|--------------------------------|
|-----------------------------------|--------------------------------|
|--------10-------10----10----10h12-|--------10-------10-------------|
|--12-12----12-12----12----12-------|--12-12----12-12----12-10-12-9--|
|-----------------------------------|--------------------------------|
|-----------------------------------|--------------------------------|

|--15-15-----15-----------|--15-17-19-17-15-17-19-19b--|
|--------18^----18b-15----|----------------------------|
|----------------------16-|----------------------------|
|-------------------------|----------------------------|
|-------------------------|----------------------------|
|-------------------------|----------------------------|

|-----------------------------|
|----8-10-8---8-10-8----------|
|--7--------7--------7-----0--|
|-----------------------------|
|-----------------------------|
|-----------------------------|

I have put it into groups so it's easier to learn.