Heartbreak Stroll Tab - The Raveonettes




-------------------------------------------------------------------------------
     Heartbreak Stroll - The Raveonettes
-------------------------------------------------------------------------------
Tabbed by: Brian Zachary
Email: My full name, BrianZachary, followed by @gmail.com

Tuning: EADGBe

Intro: Bb

Verse 1:
Bb   
Take a little time to get to know me
  Eb
The night is open dont you feel the same as I
F   Eb F
Cause I can do everything
Bb
A heartbreak stroll with someone special
    Eb
The L.A lights will never be the same
     F       Eb  F
Tonight I kill those memories

Chorus:
Gm
Get it all now cause Im on the prowl
Eb                  F
Come on baby right now
Gm
Get it all straight cause youre whistle bait
Eb                  F
Come on baby right now
Eb  F
Come on baby right now

Verse 2:
Bb
Feel the earth move when youre shaking that thing 
     Eb
Hard to be around when youve got nothing to gain
 F     Eb F
I gotta go home and sleep it off

Chorus

Bridge:

Guitar 1 plays 8x
e|----------------------------------------|
B|----------------------------------------|
G|----------------------------------------|
D|----------------------------------------|
A|--1-1-1-----6-6-6-6---4-4-4---6-4-6-4---|
E|----------------------------------------|

At the end of Guitar 1's fourth repetition, Guitar 2 plays this little lick
e|------6--4----|
B|---5^-(hold)--|
G|--------------|
D|--------------|
A|--------------|
E|--------------|

During the second half of the bridge, after the lick, Guitar 2 plays 4x
e|--1---1-1---6-6-6-6-----4---4-4----6-6-6-6---|
B|--3---3-3---8-8-8-8-----6---6-6----8-8-8-8---|
G|--3---3-3---8-8-8-8-----6---6-6----8-8-8-8---|
D|--3---3-3---8-8-8-8-----6---6-6----8-8-8-8---|
A|--1---1-1---6-6-6-6-----4---4-4----6-6-6-6---|
E|---------------------------------------------|

Verse 2

Chorus 2x

End on Bb

| /  slide up
|   slide down
| h  hammer-on
| p  pull-off
| ~  vibrato
| +  harmonic
| x  Mute note
| ^  Half-step bend
===============================================================================
ĂŽnscrie-te la newsletter


Join the ranks ! LIKE us on Facebook