Dreaming In Dog Years Tab - The Red Chord






Obviously this isn't spot-on perfect,but it's pretty accurate I think.I tabbed this out 
one guitar,even though the band has 2.

^=Bend
*= Pinch Harmonic
/= Slide
PM-- = Palm Mute
H=hammer on
-Intro

clean guitar
                                                              E
-----------------------------------------------------------------------------------|
--------------------------------------------------------------0--------------------|
--------------------------------------------------------------1--------------------|
--------------------------------------------------------------2--------------------|
--------------------------------------------------------------2--------------------|
-----------------------------------------------------------------------------------|

-Verse riff 1-Heavy Distortion

------------------------------------------------------------------------------|
------------------------------------------------------------------------------|
------------------------------------------------------------------------------|
------------------------------------------------------------------------------|
-2*-p1*------------2*-p1*---------------2*-p1*---------------2*-p1*-----------|
-------3---0-0-0---------3----0-0-0------------3----0-0-0----------3---0-0-0--|
         PM-----            PM-----           PM------             PM---------|


-Intro Clean Guitar riff again

-Breadown riff 1

---------------------------------------------------|
---------------------------------------------------|
---------------------------------------------------|
-0--3--2--0--1-3-1--0--1--0--3--2--0--1-3-1--0--4--|
-0--3--2--0--1-3-1--0--1--0--3--2--0--1-3-1--0--4--|
-0--3--2--0--1-3-1--0--1--0--3--2--0--1-3-1--0--4--|
PM--------------------   PM------------------------|

-Verse riff 2

-----------------------------------------9-/10h-|
-------------------------------------7-0ho------|
-0-5h-7h-/8h-0-5h-7h-/8h-0-5h-7h-/8h------------|
------------------------------------------------|
------------------------------------------------|
------------------------------------------------|


-Verse riff 3

-------------------------------------------------------|
-------------------------------------------------------|
-------------------------------------------------------|
-------------------------------------------------------|
-0-3h-5h-/6h--0-3h-5h-/6h--0-3h-5h-/6h--0-3h-5h-/6h----|
-------------------------------------------------------|

-Verse riff 2 two more times than

-Verse riff 3 four times

-Verse riff 1 two times

Riff 5
------------------------------------------|
------------------------------------------|
-7--7--7--7--8--8---7--7--7--7--8--8------|
-6--6--6--6--7--7---6--6--6--6--7--7------|
-5--5--5--5--6--6---5--5--5--5--6--6------|
------------------------------------------|

-Breakdown riff 1 two times...then

-------------------------------------------------------------------------------|
-----------------------------------------------------------2*^-------2*^--2*^--|
-------2*^--------2*---2*^--------2*^-------2*---2*^---------------------------|
-0--0------0--0-------------0--0------0--0------------0--0-----0--0------------|
-0--0------0--0-------------0--0------0--0------------0--0-----0--0------------|
-0--0------0--0-------------0--0------0--0------------0--0-----0--0------------|


This is defienntly not right,but close enough
-------------------------------14/--|
------------------------------------|
-5-6---6-8---8-9-11-12-12-13--------|
-4-5---5-7---7-8-10-11-11-12--------|
-3-4---4-6---6-7-9--10-10-11--------|
------------------------------------|

Verse riff 2 six times

Then play this a few times

----------------------------------------------------------------------|
----------------------------------------------------------------------|
----------------------------------------------------------------------|
-5--3-5-6-5-3----2-2--0-3-3--0-6-6-6-6-6---2-2--0-3-3--0-4-4-4-4-4----|
-3--3-5-6-5-3----2-2--0-3-3--0-4-4-4-4-4---2-2--0-3-3--0-2-2-2-2-2----|
----3-5-6-5-3----2-2--0-3-3--0-------------2-2--0-3-3--0--------------|
   PM-----------------------------------------------------------------|

-Verse riff 1 two times

Pre-Chorus riff 3 times
---------------------------------------------|
-------12/---------12/--------12/------------|
-1/10--------1/10-------1/10-----------------|
------------------------------------5-5-5-5--|
------------------------------------3-3-3-3--|
---------------------------------------------|
Pre Chorus 2
--------------------------------------------------------------------|
--------------------------------------------------------------------|
--------------------------------------------------------------------|
-----------------------------------------------------------5--5--5--|
-1--0------------------1--0------------1--0----------------3--3--3--|
-1--0------------------1--0------------1--0-------------------------|
    let ring--------------------------------------------------------|    let ring....    let ring,,,,,,,,

-MOSH!!!!!!!!!!!!

-------------------------------------------------------------------------------------------------------------|
-------------------------------------------------------------------------------------------------------------|
-------------------------------------------------------------------------------------------------------------|
---------------------------------------------------------------------------------------5-5--5-3-----5-3------|
-1--0--------0-0-0-0-0-0-0-0-1--0--------0-0-0-0-0-0-0-0-1--0------0-0-0-0-0-0-0-0-----3-3------5-3-----5-3--|
-1--0--------0-0-0-0-0-0-0-0-1--0--------0-0-0-0-0-0-0-0-1--0------0-0-0-0-0-0-0-0---------------------------|
 PM           PM----------------           PM----------------------------------------------------------------|

ĂŽnscrie-te la newsletter


Like us on Facebook