What They Do Bass Tab - The Roots






just alternate these two riffs throughout the song accordingly.e a d g

|-----------------------------|
|-----------------------------|
|-2------2------------------2-|
|-----2------0---00----0-2----|

|--------------------------------------------------|
|--------------------------------------------------|
|-2------2------------------2------2-3-------3---2-|
|-----2------0---00----0-2------2--------3-----3---|






Like us on Facebook