You Got Me Bass Tab - The Roots






Artists: The Roots
Title: You got me
Album: Things fall apart(1999)
Tabber: Stefan Langkabel   

The Melody of this song is easy, but therere different 
little variations, so thats the result. All in all it should 
be nearly right.
The rhythm is easy to hear out, so listen to the song.  

G|----------------------------------------|   
D|---------------012-----2----------------|
A|02------21----1-------2-2---------------|
E|-------------------------3------52------|

G|----------------------------------------|   *Riff II
D|---------------012----------------------|
A|02------21----1-------------------------|
E|------------------------53------52------|

G|----------------------------------------|   
D|---------------012-----20---------------|
A|02------21----1-------------------------|
E|-------------------------3------52------|

G|----------------------------------------|   
D|----------------------------------------|
A|02----2-21----20------------------------|
E|-------2--------20------53------52------|

Riff II (3x)

G|----------------------------------------|
D|---------------012----------------------|
A|02------21----1-------------------------|
E|------------------------x3------52------|

G|----------------------------------------|
D|---------------012----------------------|
A|02----2-21----1-------------------------|
E|-------2----------------53------52------|

G|----------------------------------------|
D|----------------02----2-----------------|
A|02------21-------------5----------------|
E|------------------------53------52------|

G|----------------------------------------| Play this Riff 2x.
D|---------------012----------4-----------| You havnt to 
A|02----2021----1-------------------------| the "4".
E|------------------------53------52------|

G|----------------------------------------|
D|---------------012-----2----4-----------|
A|02----2021----1---------5---------------|
E|-------------------------3------52------|

G|----------------------------------------|
D|----------------------------------------|
A|02------21------2-----------------------|
E|-----------------0------53------52------|

Riff II (2x)
Break(during the first part of the chorus)

During the second part (repetition): 

G|----------------------------------------|
D|-----------------2----------------------|
A|-2-------1------------------------------|
E|-----------------------3-3-----2-2------|

For the rest of this song:

G|----------------------------------------|
D|---------------012---02p0---------------|
A|02-----201----1-------------------------|
E|------2------------------3-------2---5--|

G|----------------------------------------|
D|---------------012---02p0---------------|
A|02-----201----1-------------------------|
E|------2------------------3-------2------|






Like us on Facebook