Big Breakdown-day 1 Bass Tab - The Sleeping






Intro


[---------------------------------------]
[--------------------------4--2---------]
[-4-----------------4------------4------]
[---5--7---1-2--3-----5--7--------------]


[------------------------------------------]
[--------------4---------------------------]
[-4------------------4---------------------]
[---5--7---1--2--3------5--7---------------]

Salvatore uses what sounds like a phaser during this part.

[-----------------------------------------------------------]
[-----------------------------------------------------------]
[-4---6---------7----6--------------------------------------]
[----------7------------------------------------------------]

[-----------------------------------------------------------]
[-----------------------------------------------------------]
[-44444444---66666666--------------7-----------6------------]
[-----------------------77777777----------------------------]

[---------------------------------------]
[--------------------------4--2---------]
[-4-----------------4------------4------]
[---5--7---1-2--3-----5--7--------------]


[---------------------------------------]
[--------------4--------------44442-2---]
[-4------------------4-------------4----]
[---5--7---1--2--3------5--7------------]


[---------------------------------------]
[--------------------------4--2---------]
[-4-----------------4------------4------]
[---5--7---1-2--3-----5--7--------------]


[-------------4-------------------------]
[---------------------------------------]
[-4------------------4------------------]
[---5--7---1--2--3------5--7------------]

Judging by these written words...

[-----------------------------------------------------------]
[-----------------------------------------------------------]
[-4---6---------7----6--------------------------------------]
[----------7------------------------------------------------]

[-----------------------------------------------------------]
[-----------------------------------------------------------]
[-44444444---66666666--------------7-----------6------------]
[-----------------------77777777----------------------------]

Broken down somewhere in Georgia

[---------------------------------------]
[--------------------------4--2---------]
[-4-----------------4------------4------]
[---5--7---1-2--3-----5--7--------------]


[---------------------------------------]
[--------------4--------------44442-2---]
[-4------------------4-------------4----]
[---5--7---1--2--3------5--7------------]


[---------------------------------------]
[--------------------------4--2----2----]
[-4-----------------4------------4------]
[---5--7---1-2--3-----5--7--------------]


[---------------------------------------]
[--------------4------------------------]
[-4------------------4------------------]
[---5--7---1--2--3------5--7------------]

Its the devil

[------------------------------------------------------------------]
[------------------------------------------------------------------]
[44444444444444-------------------00000000000000--22222222222222---]
[---------------2--00000000000000----------------------------------]


[--------------1---------------------------------------------------]
[------4-2---2------4--2-------------------------------------------]
[-4-4------4-------------2---000-2--00000000--222222222-----0234---]
[-----------------0--------------------------------------234-------]


Counting Down

[---------------------------------------]
[--------------------------4--2---------]
[-4-----------------4------------4------]
[---5--7---1-2--3-----5--7--------------]


[---------------------------------------]
[--------------4--------------4--2------]
[-4------------------4-------------4----]
[---5--7---1--2--3------5--7------------]


[-----------------------------------------]
[-------------------------------44442-2---]
[-4-------4-------4-------4----------4-4--]
[---5--7----5--7----5--7----5--7----------]


Six six six

[---------------------------------------]
[--------------------------4--2---------]
[-4-----------------4------------4------]
[---5--7---1-2--3-----5--7--------------]


[---------------------------------------]
[-----------------------------44442-2---]
[-4------------------4-------------4----]
[---5--7---1--2--3------5--7------------]


[---------------------------------------]
[--------------------------4--2---------]
[-4-----------------4------------4------]
[---5--7---1-2--3-----5--7--------------]


[---------------------------------------]
[--------------4------------------------]
[-4------------------4------------------]
[---5--7---1--2--3------5--7------------]


[------------------------------------------------------------]
[------------------------------------------------------------]
[--4444444444---------------0000000000000---222222222222-----]
[-------------2-000000000000---------------------------------]

[------------------------------------------------------------]
[------------------------------------------------------------]
[--4444444444---------------0000000000000---222222222222-----]
[-------------2-000000000000---------------------------------]

[------------------------------------------------------------]
[------------------------------------------------------------]
[--4-----------4-----------4------------4--------------4-----]
[------------------------------------------------------------]

-T.K.






Like us on Facebook