Dont Hold Back Bass Tab - The Sleeping






No Playing in intro

Verse 1:(0:14)
[--------------------------------------------------------------|
[--------------------------------------------------------------|
[---5-5--3--555---5-5--3--555---5-8-5-2--5-8-5-2--7-7--5--777--|
[--------------------------------------------------------------|


[-----------------------------------|
[-----------------------------------|
[-7-7--5--777--9-9--7--999--12-12~--|
[-----------------------------------|

(Just lay down...)

[-------------------------------------------------------|
[-77777777-5--77777777-5-3-5/77777777-5--77777777-5-3-5-|
[-------------------------------------------------------|
[-------------------------------------------------------|

(sry this parts a lil messed up,I did the best i could so your on your own)
[----------------------------------------------|
[----------------------------------------------|
[-0-0-0-32-0-32-0-32-0-0-0-0-32-0-32-0-32-0-0--|
[----------------------------------------------|

[-------------------------------------------------------|
[-77777777-5--77777777-5-3-5/77777777-5--77777777-5-3-5-|
[-------------------------------------------------------|
[-------------------------------------------------------|

[----------------------------------------------|
[----------------------------------------------|
[-0-0-0-32-0-32-0-32-0-0-0-0-32-0-32-0-32-0-0--|
[----------------------------------------------|

[---------------------------------------------------------|
[-77777777-5--77777777-5-3-5/77777777-5----77777777-5-3-5-|
[---------------------------------------13----------------|
[---------------------------------------------------------|

[----------------------|
[----------------------|
[-0-0-0-32-0-32-0-32-0-|
[----------------------|

Chrous:
[---------------------------------------------------------------------|
[---------------------------------------------------------------------|
[---------------------------------------------------------------------|
[--0--2--5-5-5-5-5-5-5-5--0-0-0-0-0-0-0-0--4-4-4-4--0-0-0-0--7-7-7-7--|

[----------------------------------------------------------------|
[----------------------------------------------------------------|
[----------------------------------------------------------------|
[--5-5-5-5-5-5-5-5--0-0-0-0-0-0-0-0--4-4-4-4--0-0-0-0--7-7-7-7---|

Bridge:
[--------------------------------------------------------------|
[--------------------------------------------------------------|
[---5-5--3--555---5-5--3--555---5-8-5-2--5-8-5-2--7-7--5--777--|
[--------------------------------------------------------------|

[-----------------------------------|
[-----------------------------------|
[-7-7--5--777--9-9--7--999--12-12~--|
[-----------------------------------|

Verse2:
[----------------------------------------------------------|
[-77777777-5--77777777-5-3-5/77777777-5-5/1/77777777-5-3-5-|
[----------------------------------------------------------|
[----------------------------------------------------------|

[----------------------------------------------|
[----------------------------------------------|
[-0-0-0-32-0-32-0-32-0-0-0-0-32-0-32-0-32-0-0--|
[----------------------------------------------|

[-------------------------------------------------------|
[-77777777-5--77777777-5-3-5/77777777-5--77777777-5-3-5-|
[-------------------------------------------------------|
[-------------------------------------------------------|

[----------------------|
[----------------------|
[-0-0-0-32-0-32-0-32-0-|
[----------------------|

Chrous:
[---------------------------------------------------------------------|
[---------------------------------------------------------------------|
[---------------------------------------------------------------------|
[--0--2--5-5-5-5-5-5-5-5--0-0-0-0-0-0-0-0--4-4-4-4--0-0-0-0--7-7-7-7--|

[---------------------------------------------------------------|
[---------------------------------------------------------------|
[---------------------------------------------------------------|
[--5-5-5-5-5-5-5-5--0-0-0-0-0-0-0-0--4-4-4-4--0-0-0-0--7-7-7-7--|

(Stop...)
Bridge:
[------------------------|
[------------------------|
[----0---0------0-----0--|
[--2----0-----2-----0----|(2x)

[-----------------------------------------------------------------------------|
[-----------------------------------------------------------------------------|
[-0000000000000000-3333333333333333-555555555555555-000000000(continue with 0-|
[-----------------------------------------------------------------------------|till end of
                                                                bridge)

Chrous:
[---------------------------------------------------------------|
[---------------------------------------------------------------|
[---------------------------------------------------------------|
[--5-5-5-5-5-5-5-5--0-0-0-0-0-0-0-0--4-4-4-4--0-0-0-0--7-7-7-7--|(2x)

Outro:
[--------------------------------------------------------------|
[--------------------------------------------------------------|
[---5-5--3--555---5-5--3--555---5-8-5-2--5-8-5-2--7-7--5--777--|
[--------------------------------------------------------------|

[----------------------------------------]
[----------------------------------------]
[-7-7--5--777--9-9--7--999--12--9--7--5~-]
[----------------------------------------]

It's my first tab so bear with me. It's a pretty easy song and fun to play. If you got 
?s, comments or corrections please comment or email me at sportznut1110@yahoo.com
Enjoy! and God Bless






Like us on Facebook