Dont Hold Back Intro (ver2) Tab - The Sleeping






Artist: The Sleeping
Song: Dont Hold Back
Album: Questions & Answers
Tabbed by: Nickster29

This should be the exact intro for Dont Hold Back. Check it out, rate, and comment. Thanks, enjoy!

Tuning: Standard (EADGBE)

|-----------------------------------------------------------|
|-----------------------------------------------------------|
|-----------------------------------------------------------|
|-----------------------------------------------------------|
|----------------------------------------2-1--------2-1-----|
|--2h4-2h4-2h4p2h4--2h4-2h4-2h4p2h4--2h4-----4--2h4-----4---|

|------------------------------------------------------------------------|
|------------------------------------------------------------------------|
|------------------------------------------------------------------------|
|------------------------------------------------------------------------|
|------------------------------------4h6-4h6-4h6p4h6--9h11-9h11-11-------|
|--4h7-4h7-4h7p4h7--4h7-4h7-4h7p4h7--------------------------------6/2---|

|-----------------------------------------------------------|
|-----------------------------------------------------------|
|-----------------------------------------------------------|
|-----------------------------------------------------------|
|----------------------------------------2-1--------2-1-----|
|--2h4-2h4-2h4p2h4--2h4-2h4-2h4p2h4--2h4-----4--2h4-----4---|

|------------------------------------------------------------------|
|------------------------------------------------------------------|
|------------------------------------------------------------------|
|------------------------------------------------------------------|
|------------------------------------4h6-4h6-4h6p4h6--9h11-9h11~---|
|--4h7-4h7-4h7p4h7--4h7-4h7-4h7p4h7--------------------------------|

h = hammer on
p = pull off
/ = slide
~ = vibrato

There you go, enjoy!








Like us on Facebook