The Big Breakdown-day 2 Bass Tab - The Sleeping






Intro

I tabbed this out in dropped D because that is what its played in and most people only 
4 strings but it is easier to play on a 5 string in standard tuning.

[---------------------------------------------------------------------]
[---------------------------------------------------------------------]
[--4-2-0---4-2-0---4-2-0---4-2-0--------------------------------------]
[---------------------------------------------------------------------]

Lying in bed                              vomiting

[---------------------------------------------------------------------]
[---------------------------------------------------------------------]
[--4-2-0---4-2-0---------4-2-0---4-2-0---4-2-0---4-2-0---4-2-0--------]
[----------------2-4444----------------------------------------2-4444-]

          where were you       Face first I am not o.k.

[---------------------------------------------------------------------]
[-------------1---2---4-2-1------------------4442-2-------------------]
[-4-2-0---4-2---2---2-------4--4-2-0---4-2-0-----4----4-2-0---4-2-0---]
[---------------------------------------------------------------------]

                                         where were you

[---------------------------------------------------------------------]
[--------------------------------------------1---2---4-2-1------------]
[-4-2-0---------4-2-0---4-2-0---4-2-0----4-2---2---2------------------]
[-------2-4444--------------------------------------------------------]

                      Side by side

[---------------------------------------------------------------------]
[-----1---2---4-2-1---------------------------------------------------]
[-4-2---2---2-------4-----4204-4204-420-0000-0000-0022----------------]
[-----------------------------------------------------4444-4444-4444--]

                                            Side by side

[---------------------------------------------------------------------]
[---------------------------------------------------------------------]
[---------------4204-4204-420-0000-0000-0022--------------------------]
[-2211-2211-44-------------------------------4444-4444-4444-2211-2211-]


[---------------------------------------------------------------------]
[-----------1----2----424121-----------1----2----424121---------------]
[------4-22---22---22-------------4-22---22---22----------------2-----]
[-44-------------------------666------------------------666--242------]

             I am not o.k.

[---------------------------------------------------------------------]
[---------------------------------------------------------------------]
[-2-4---------2-44444444444-2-4444444444-4201-4201-420-0000-0000-0022-]
[---------------------------------------------------------------------]

                                  But what I left behind was evil

[---------------------------------------------------------------------]
[---------------------------------------------------------------------]
[----------------------------------4201-4201-420-0000-0000-0022-------]
[-4444-4444-4444-22211-22211-44411------------------------------4444--]


[---------------------------------------------------------------------]
[---------------------------------------------------------------------]
[---------------------4201-4201-420-0000-0000-0022--------------------]
[-4444-4444-2-2-2-1-1------------------------------4444-4444-4444-----]

                      swallowing me whole

[---------------------------------------------------------------------]
[---------------------------------------------------------------------]
[--------------------4201-4201-420-0000-0000-0022---------------------]
[-22211-22211-444411------------------------------4-4-4-4-4-22-22-22--]

                                            Vomiting

[---------------------------------------------------------------------]
[---------------------------------------------------------------------]
[---------4-2-0---4-2-0------4-2-0---4-2-0---4-2-0---4-2-0---4-2-0----]
[-11111-----------------2222------------------------------------------]

              I whispered out your name

[---------------------------------------------------------------------]
[-------2-------------------------------------------------------------]
[-4-2-0--010--4-2-0---------------------------------------------------]
[---------------------------------------------------------------------]






Like us on Facebook