Gimme Some Lovin (ver2) Bass Tab - The Spencer Davis Group






-----------------------------------------------------------------------------
     Gimme Some Lovin - Spencer Davis Group
-----------------------------------------------------------------------------

Tabbed By : Danny Corum
e-mail: Vettedream89@aol.com

Tuning: Standard-EADG

G|-------------|
D|-3-3-3-3-3---|   play about 4 times, the keyboard comes in, then play about
A|-------------|   8 more imes. Listen to song for timing and amount played.
E|-----------1-|

G|--------------------------------------------------------------------|
D|--------------------------------------------------------------------|
A|-----------------------------------0-0-0-0-0-0-0-0--3-3-3-3-3-3-3-3-|
E|-0-0-0-0-0-0-0-0--3-3-3-3-3-3-3-3-----------------------------------|

G|--------------------------------------------------------------------|
D|--------------------------------------------------------------------|
A|-----------------------------------0-0-0-0-0-0-0-0--3-3-3-3---3---3-|
E|-0-0-0-0-0-0-0-0--3-3-3-3-3-3-3-3-----------------------------------|

G|-------------|
D|-3-3-3-3-3---|   play about 4 more times
A|-------------|   
E|-----------1-|






Like us on Facebook