Gimme Some Lovin Bass Tab - The Spencer Davis Group






SPENCER DAVIS GROUP - "Gimme Some Lovin'" - Bass Tab

common time(4/4)
standard tuning(EADG)
*Note: I'm not sure what key it's in

INTRO/VERSE:

|---------------|
|*-3-3-3-3-3---*|
|*-------------*|
|------------1--|
   1 & 2 & 3 4

CHORUS:

|------------------|-----------------|-----------------|
|*-----------------|-----------------|-----------------|
|*-----------------|-----------------|-1-1-1-1-1-1-1-1-|
|--1-1-1-1-1-1-1-1-|-4-4-4-4-4-4-4-4-|-----------------|
   1 & 2 & 3 & 4 &   1 & 2 & 3 & 4 &   1 & 2 & 3 & 4 &

|------------------|
|-----------------*|
|-4-4-4-4-4-4-4-4-*|
|------------------|
  1 & 2 & 3 & 4 &

By: Johari Taylor
E-mail: viking@powerup.com.au






Like us on Facebook