Im A Man Bass Tab - The Spencer Davis Group






I'm A Man  - Spencer Davis Group

TABBED by hawkhuff

This one is fairly simple but there is a lot you can do with it. 
The Chicago Transit Authority comes to mind when they did their
version in the late sixties.  Rock on.

Intro and Verse riff:   4/4 time (the octave E is optional)
G-----------------------------------|
D------0-------2--------------------|
A----2---2--------------------------|
E-----------00----------------------|


Chorus:    (again, the octave E is optional)
G-------------------------------------|
D------------------------22-----------|
A-------------------------------------|
E------33333332222111100--------------|


any questions:   hawkhuff@msn.com






Like us on Facebook