I Wanna Be Your Dog Bass Tab - The Stooges






I wanna be your dog bass tab 
By The Stooges from the first album
------------------------------------------------------------------------------
-------------------------------------------------
Ive searched unsuccessfully everywhere on the web to find bass tabs from one
of my favorite band The Stooges. So I decided to write them by my self. This
is my first tab so it may be a bit off. Its a really simple song.

Intro (leads straight to verse)
G-----------------------------------------------
D-----------------------------------------------
A---------------------7-7-7-7-7-7-7-7-------
E0-0-0-0-0-0-0----------------------------

Verse
G----------------------------------------------
D----------------------------------------------
A10-10-10-10-9-9-9-9-7-7-7-7-7-7--
E----------------------------------------------

Chorus (now I wanna be your dog) x 3
G---------------------------------------------
D---------------------------------------------
A10-10-10-10-9-9-9-9-9-9-9-7-7-7-
E---------------------------------------------

Then:
G--------------------------------------------------------------------
D--------------------------------------------------------------------
A10-10-10-7-7-7-------------------------------7-(X 15)-----
E-----------------------10-10-10-7-7-7-8-( X 19)---------------

Thats it! Have fun!

Questions, comment, suggestions: write me
Jpmiss@aol.com